Artists by letter: A B C D E F G H I J K L M N O P Q R S T U V W X Y Z 0-9

 
Siempre Me Dejas
Es te es una nueva tablatura kreo ke la ke puse anterios mente salio chueka y no la va 
esta si esta bien disculpen :[email protected] ...
ayudas jeee..- al msn

C  C*  Am  Am* G*  G  F  Cadd9
       E|----0--8---0----5---3"-3--1---8--|
       A|----3--10--0----7---5"-2--3---10-|
Notas: D|----2--10--2----7---5"-0--3---12-|
       G|----0"-x---2----x---x"-0--x---9--|
       B|----1--x---1----x---x"-2--x---8--|
       e|----X--x---0----x---x"-2--x---8--|

El intro de la transcripción de Carlos Gallegos está muy bien
y pss aki stá (esto se hace con guitarra acústica)

Guitarra 1
Intro X4

E|-8----8---8---8--8-----8--------------------|
A|--------------------------------------------|
D|-----------------------------0------0-----0-|
G|---0---------------0-------0------0-----0---|
B|----0----------------0---7------6-----5-----|
e|-8-----8--10--7-----------------------------|

Guitarra 2 (entra en la 3ª vuelta del intro)

E|---------------|
A|---------------|
D|---------------|
G|---------8-7-8-|
B|-10-9-10-------|
e|---------------|

Ya en la 4ª vuelta suenan las eléctricas distorsionadas haciendo
esto:
(oye bien la canción para ke lleves bien los tiempos, acordes
y ritmo)

GUITAR1

C*                 Cadd9      Am*        G*       F
e|---------------------------------------------------------------|
B|---------------------------------------------------------------|
G|---------------------------------------------------------------|
D|-101010101010101010-1212121212-7-7-7-7-7"-5-5-5-5"-3-3-3-3-----|
A|-101010101010101010-1010101010-7-7-7-7-7"-5-5-5-5"-3-3-3-3-----|
E|-8-8-8-8-8-8-8-8-8"-8-8-8-8-8"-5-5-5-5-5"-3-3-3-3"-1-1-1-1 X 2-|
                                                           veces
GUITAR 2
   C*         Cadd9    Am*        G*   F
e|-8888888888-10101010-7777755555-3333-1111---|
B|-8888888888-10101010-7777755555-3333-1111---| x2 veces
G|--------------------------------------------|
D|--------------------------------------------|
A|--------------------------------------------|
E|--------------------------------------------|

C            Am
Sólo déjame hablar
G
no quieres verme
C                    Am
tu me das aire para respirar
G
un día mas…

Am
parece mentira
     C
que todo el mundo
    Am
de vueltas
        G
a tu alrededor..
      C
pero tuuu
Am             C        G
   tu siempre me dejas

Coro:

Yo se que sientes algo mas…

GUITAR1

C*                 Cadd9      Am*        G*       F
e|-------------------------------------------------------------|
B|-------------------------------------------------------------|
G|-------------------------------------------------------------|
D|-101010101010101010-1212121212-7-7-7-7-7"-5-5-5-5"-3-3-3-3---|
A|-101010101010101010-1010101010-7-7-7-7-7"-5-5-5-5"-3-3-3-3---|
E|-8-8-8-8-8-8-8-8-8"-8-8-8-8-8"-5-5-5-5-5"-3-3-3-3"-1-1-1-13--|

GUITAR2
   C*         Cadd9    Am*        G*   F
e|-8888888888-10101010-777775555-3333-111---|
B|-8888888888-10101010-777775555-3333-111---|
G|------------------------------------------|
D|------------------------------------------|
A|------------------------------------------|
E|------------------------------------------|

Por mi…

GUITAR1

C*                 Cadd9      Am*        G*       F
e|-------------------------------------------------------------|
B|-------------------------------------------------------------|
G|-------------------------------------------------------------|
D|-101010101010101010-1212121212-7-7-7-7-7"-5-5-5-5"-3-3-3-3---|
A|-101010101010101010-1010101010-7-7-7-7-7"-5-5-5-5"-3-3-3-3---|
E|-8-8-8-8-8-8-8-8-8"-8-8-8-8-8"-5-5-5-5-5"-3-3-3-3"-1-1-1-1---|

GUITAR 2
   C*         Cadd9    Am*        G*   F
e|-8888888888-10101010-777775555-3333-111---|
B|-8888888888-10101010-777775555-3333-111---|
G|------------------------------------------|
D|------------------------------------------|
A|------------------------------------------|
E|------------------------------------------|

Am         C           Am
   perdóname, yo me resisto
      G           Am
a perderte otra vez
Am         C             Am
   perdóname, es que no puedo
       G
verme lejos de ti

Coro

Konrado: Yo se que sientes algo mas…
Kar(coro): Dispara Bien…

GUITAR1

C*                 Cadd9      Am*        G*       F
e|-------------------------------------------------------------|
B|-------------------------------------------------------------|
G|-------------------------------------------------------------|
D|-101010101010101010-1212121212-7-7-7-7-7"-5-5-5-5"-3-3-3-3---|
A|-101010101010101010-1010101010-7-7-7-7-7"-5-5-5-5"-3-3-3-3---|
E|-8-8-8-8-8-8-8-8-8"-8-8-8-8-8"-5-5-5-5-5"-3-3-3-3"-1-1-1-1---|
GUITAR2
   C*         Cadd9    Am*        G*   F
e|-8888888888-10101010-777775555-3333-111---|
B|-8888888888-10101010-777775555-3333-111---|
G|------------------------------------------|
D|------------------------------------------|
A|------------------------------------------|
E|------------------------------------------|

Konrado: Por mi…
Kar(coro): Mejor Destrúyeme otra vez

GUITAR1

C*                 Cadd9      Am*        G*       F
e|-------------------------------------------------------------|
B|-------------------------------------------------------------|
G|-------------------------------------------------------------|
D|-101010101010101010-1212121212-7-7-7-7-7"-5-5-5-5"-3-3-3-3---|
A|-101010101010101010-1010101010-7-7-7-7-7"-5-5-5-5"-3-3-3-3---|
E|-8-8-8-8-8-8-8-8-8"-8-8-8-8-8"-5-5-5-5-5"-3-3-3-3"-1-1-1-1---|
GUITAR 2
   C*         Cadd9    Am*        G*   F
e|-8888888888-10101010-777775555-3333-111---|
B|-8888888888-10101010-777775555-3333-111---|
G|------------------------------------------|
D|------------------------------------------|
A|------------------------------------------|
E|------------------------------------------|

Konrado: Yo se que sientes algo mas…
Kar(coro): Oh! Dejame volver

GUITAR1

C*                 Cadd9      Am*       G*       F
e|-------------------------------------------------------------|
B|-------------------------------------------------------------|
G|-------------------------------------------------------------|
D|-101010101010101010-1212121212-7-7-7-7-7"-5-5-5-5"-3-3-3-3---|
A|-101010101010101010-1010101010-7-7-7-7-7"-5-5-5-5"-3-3-3-3---|
E|-8-8-8-8-8-8-8-8-8"-8-8-8-8-8"-5-5-5-5-5"-3-3-3-3"-1-1-1-1---|
GUITAR2
   C*         Cadd9    Am*        G*   F
e|-8888888888-10101010-777775555-3333-111---|
B|-8888888888-10101010-777775555-3333-111---|
G|------------------------------------------|
D|------------------------------------------|
A|------------------------------------------|
E|------------------------------------------|

Konrado: Por mi…
Kar(coro): Junto a ti, ya ven, hoy quiero verte

GUITAR1

C*                 Cadd9      Am*       G*       F
e|-------------------------------------------------------------|
B|-------------------------------------------------------------|
G|-------------------------------------------------------------|
D|-101010101010101010-1212121212-7-7-7-7-7"-5-5-5-5"-3-3-3-3---|
A|-101010101010101010-1010101010-7-7-7-7-7"-5-5-5-5"-3-3-3-3---|
E|-8-8-8-8-8-8-8-8-8"-8-8-8-8-8"-5-5-5-5-5"-3-3-3-3"-1-1-1-1---| X2

GUITAR 2
   C*         Cadd9    Am*        G*   F
e|-8888888888-10101010-777775555-3333-111---|
B|-8888888888-10101010-777775555-3333-111---|
G|------------------------------------------|
D|------------------------------------------|
A|------------------------------------------|
E|------------------------------------------|

Puente: (esta parte es con arpegio)

C    Am                 C      G
         Tu siempre me dejas…

C          Am          C
   perdóname, yo me resisto
      G           C
a perderte otra vez
C          Am             C
   perdóname, es que no puedo
       G
verme lejos de ti…

Coro

Konrado: Yo se que sientes algo mas…
Kar(coro): Dispara Bien…

GUITAR1

C*                 Cadd9      Am*        G*       F
e|-------------------------------------------------------------|
B|-------------------------------------------------------------|
G|-------------------------------------------------------------|
D|-101010101010101010-1212121212-7-7-7-7-7"-5-5-5-5"-3-3-3-3---|
A|-101010101010101010-1010101010-7-7-7-7-7"-5-5-5-5"-3-3-3-3---|
E|-8-8-8-8-8-8-8-8-8"-8-8-8-8-8"-5-5-5-5-5"-3-3-3-3"-1-1-1-1---|
GUITAR2
   C*         Cadd9    Am*        G*   F
e|-8888888888-10101010-777775555-3333-111---|
B|-8888888888-10101010-777775555-3333-111---|
G|------------------------------------------|
D|------------------------------------------|
A|------------------------------------------|
E|------------------------------------------|

Konrado: Por mi…
Kar(coro): Mejor Destrúyeme otra vez

GUITAR1

C*                 Cadd9      Am*        G*       F
e|-------------------------------------------------------------|
B|-------------------------------------------------------------|
G|-------------------------------------------------------------|
D|-101010101010101010-1212121212-7-7-7-7-7"-5-5-5-5"-3-3-3-3---|
A|-101010101010101010-1010101010-7-7-7-7-7"-5-5-5-5"-3-3-3-3---|
E|-8-8-8-8-8-8-8-8-8"-8-8-8-8-8"-5-5-5-5-5"-3-3-3-3"-1-1-1-1---|
GUITAR 2
   C*         Cadd9    Am*        G*   F
e|-8888888888-10101010-7777755555-3333-1111---|
B|-8888888888-10101010-7777755555-3333-1111---|
G|--------------------------------------------|
D|--------------------------------------------|
A|--------------------------------------------|
E|--------------------------------------------|

Yo se que sientes algo mas…
Oh! Dejame volver

GUITAR1

C*                 Cadd9      Am*       G*       F
e|-------------------------------------------------------------|
B|-------------------------------------------------------------|
G|-------------------------------------------------------------|
D|-101010101010101010-1212121212-7-7-7-7-7"-5-5-5-5"-3-3-3-3---|
A|-101010101010101010-1010101010-7-7-7-7-7"-5-5-5-5"-3-3-3-3---|
E|-8-8-8-8-8-8-8-8-8"-8-8-8-8-8"-5-5-5-5-5"-3-3-3-3"-1-1-1-1---|

GUITAR2
   C*         Cadd9    Am*        G*   F
e|-8888888888-10101010-777775555-3333-111---|
B|-8888888888-10101010-777775555-3333-111---|
G|------------------------------------------|
D|------------------------------------------|
A|------------------------------------------|
E|------------------------------------------|

Por mi…
Junto a Ti, ya ven, hoy quiero verte

GUITAR1

C*                 Cadd9      Am*       G*       F
e|----------------------------------------------------------------|
B|----------------------------------------------------------------|
G|----------------------------------------------------------------|
D|-101010101010101010-1212121212-7-7-7-7-7"-5-5-5-5"-3-3-3-3------|
A|-101010101010101010-1010101010-7-7-7-7-7"-5-5-5-5"-3-3-3-3------|
E|-8-8-8-8-8-8-8-8-8"-8-8-8-8-8"-5-5-5-5-5"-3-3-3-3"-1-1-1-1------| X2
GUITAR 2
   C*         Cadd9    Am*        G*   F
e|-8888888888-10101010-777775555-3333-111---|
B|-8888888888-10101010-777775555-3333-111---|
G|------------------------------------------|
D|------------------------------------------|
A|------------------------------------------|
E|------------------------------------------|

Y para finalizar…

Mejor vida..
eeeeeeee!

C*                 Cadd9                C*
e|--------------------------------------------------------------|
B|--------------------------------------------------------------|
G|--------------------------------------------------------------|
D|-101010101010101010101010-12-12-12-12-12-10-10"-10---10----10-|
A|-101010101010101010101010-10-10-10-10-10-10-10"-10---10----10-|
E|-8-8-8-8-8-8-8-8-8"8-8-8--8--8"-8--8--8"-8"-8--"8---"8-----8--|
 
 
Insite - Siempre Me Dejas :: indexed at Ultimate Guitar.
Siempre Me Dejas tabs @ 911Tabs

Quick tip, so you can enjoy Siempre Me Dejas even more:

After the registration (which takes just 10 seconds, remember?) you will be able to use your profile - your very own piece of YourChords.com.

Show us your talent, perform Siempre Me Dejas!

Here you can post a video or audio performance. Tell me more ...
Where can we find your performance? Tell me more ...
Your comment:
Please, log in to post your performance.