Artists by letter: A B C D E F G H I J K L M N O P Q R S T U V W X Y Z 0-9

 
Rojo Azul
Intro

e|------------------------------------------|
B|-------5------5-------5-------5-------5---|
G|------------------------------------------|
D|--4--4----4--4----4--4----4--4----4--4----|
A|------------------------------------------|
E|------------------------------------------|

----------------------------------------------|
-------5------5-------3-------2-------2p3p2---|
----------------------------------------------|
--0--0----0--0----0--0----0--0----0--0--------|
----------------------------------------------|
----------------------------------------------|

------------------------------------------|
-------5------5-------5-------5-------5---|
------------------------------------------|
------------------------------------------|
--0--0----0--0----0--0----0--0----0--0----|
------------------------------------------|

----------------------------------------------|
-------5------5-------3-------2-------2p3p2---|
----------------------------------------------|
--0--0----0--0----0--0----0--0----0--0--------|
----------------------------------------------|
----------------------------------------------|

E            D           A            D        con distor.
----------------------------------------------|
----------------------------------------------|
-----9--------11------13---14-----9-----7-----|
----------------------------------------------|
-----7--------9-------11---12-----7-----5-----|
----------------------------------------------|

E              D                A                      D
mira como estoi, sigo en el suelo i sin poderme levantar
     E               D              A                        D
porfavr explicame como, ago para no extrñar tu risa esa mirada
            B  B-Cm#-D
 cada mañanaaa

toda igual asta esta parte..

G------9------------|
D--6-7---7-6-6p7p6--|
A------------------7|

necesito ver que no es tan tarde

B  B-Cm#-D   A      D
....otra vez

(aqui la rola todo igual..)
E                D          A     D
     como es posible que ia no     eeestas..

en la parte calmada...cambia

B     D       A
  mira todo esta
  D
pintado en tu color..

(original con piano)

e|-------------------------------------------|
B|---12--15-14----10--15-14----9--15-14---15-|
G|-------------------------------------------|
D|-------------------------------------------|
A|-------------------------------------------|
E|-------------------------------------------|

y de aqui en adelante toda la rola va con los mismos acordes

B - Cm#(medio tiempo) - D - A - D

E    D     A     B     Cm#             (Clean)
e|-x-| |-x-| |-x-| |-x-| |-x-|
B|-5-| |-5-| |-5-| |-5-| |-5-|
G|-2-| |-2-| |-2-| |-4-| |-6-|
D|-4-| |-0-| |-2-| |-4-| |-6-|
A|-0-| |-0-| |-0-| |-2-| |-4-|
E|-x-| |-x-| |-x-| |-x-| |-x-|

E    D     A     B     Cm#             (distor)
e|-x-| |-x-| |-x-| |-x-| |-x-|
B|-x-| |-x-| |-x-| |-x-| |-x-|
G|-9-| |-7-| |-x-| |-4-| |-6-|
D|-9-| |-7-| |-7-| |-4-| |-6-|
A|-7-| |-5-| |-7-| |-2-| |-4-|
E|-x-| |-x-| |-5-| |-x-| |-x-|
 
 
Insite - Rojo Azul :: indexed at Ultimate Guitar.
Rojo Azul tabs @ 911Tabs

Quick tip, so you can enjoy Rojo Azul even more:

If you don't really know how to deal with "Absus4" chord and his equally confusing brothers, just put the mouse cursor over them and you will be shown a helpful chord diagram.

Show us your talent, perform Rojo Azul!

Here you can post a video or audio performance. Tell me more ...
Where can we find your performance? Tell me more ...
Your comment:
Please, log in to post your performance.