Artists by letter: A B C D E F G H I J K L M N O P Q R S T U V W X Y Z 0-9

 
Collector
Collector - I Kill Giants
Questions/Comments- [email protected]

This is how I play the song and about as close as I can get. Any suggestions are 
welcome. Thank you!

In the end of the intro lead part, G|--11/--| means to slide all the way up the neck.

The strumming is not included, but should be easy to figure out if you play along with the song.

Order:
Intro Part 1 3x
Intro Part 2   
               
Intro Part 1 6x  with lead guitar
                 
Verse part 1a 3x
Verse part 2a

Verse part 1b
Verse part 2b

Pre-Chorus
Chorus part a
Chorus part b
Chorus part a

Verse part 1b (only bass and drums)
Verse part 2a (only bass and drums; guitar comes in at the end)

Verse part 1b
Verse part 2b

Bridge

Ending 4x (no lead)
Ending 3x (lead part a)
Ending 1x (lead part b)

Intro part 1:

E|--7--6--4--|
B|--7--7--4--|
G|--8--8--5--|
D|--9--8--6--|
A|--9--6--6--|
E|--7-----4--|

Intro part 2:

E|--7--0------0-----------|
B|--7--0------0-----------|
G|--8--1------1-----------|
D|--9--2------2-----------|
A|--9--2------2-----------|
E|--7--0------0-----------|

Intro lead:

E|--11--12p11---------------11--12p11------11--12--14t--12t--11t--12p11------|
B|-------------12----------------------12------------------------------------|
G|-----------------11v-------------------------------------------------------|
D|---------------------------------------------------------------------------|
A|---------------------------------------------------------------------------|
E|---------------------------------------------------------------------------|

E|--11--12p11-----------11--12p11-----------11--12p11------11--12--14t--12t--11t--12p11-|
B|-------------12------------------12------------------12-------------------------------|
G|-----------------11v-----------------11v----------------------------------------------|
D|--------------------------------------------------------------------------------------|
A|--------------------------------------------------------------------------------------|
E|--------------------------------------------------------------------------------------|

E|--11--12p11----------------|
B|-------------12------------|
G|-----------------11v--11/--|
D|---------------------------|
A|---------------------------|
E|---------------------------|

Verse part 1a:

E|----------0-----------0-----------0-----------4--|
B|----------0-----------0-----------0-----------4--|
G|----------1-----------1-----------1-----------5--|
D|----------2-----------2-----------2-----------6--|
A|----------2-----------2-----------2-----------6--|
E|----0--0--0--0--0--0--0--0--0--0--0--0--4--4--4--|

Verse part 1b:
 1x      2x
E|------|--0--4--|--0--|
B|--44--|--0--4--|--0--|
G|--44--|--1--5--|--1--|
D|--44--|--2--6--|--2--|
A|--22--|--2--6--|--2--|
E|------|--0--4--|--0--|

Verse part 2a:

E|------------------------------------|
B|------------------555---------------|
G|--4--6------------666---------------|
D|--4--6------------666---------------|
A|--2--4------------444---------------|
E|------------------------------------|

Verse part 2b:

E|--------|
B|--------|
G|--4--6--|
D|--4--6--|
A|--2--4--|
E|--------|

Pre-Chorus:

E|---------4--2--0-----|
B|--0h2h4-----------4--|
G|---------------------|
D|---------------------|
A|---------------------|
E|---------------------|

Chorus part a:

E|--------------------------------0--2/4--2--0-------|
B|--------------------------------0-------------4p0--|
G|--8-----9-------11------11------1------------------|
D|--9-----11------13------13------2------------------|
A|-----9------11------13------13--2------------------|
E|--------------------------------0------------------|

Chorus part b:

E|--------------------------------0----------------|
B|--------------------------------0--4/5--4--2--0--|
G|--8-----9-------11------11------1----------------|
D|--9-----11------13------13------2----------------|
A|-----9------11------13------13--2----------------|
E|--------------------------------0----------------|

Bridge (guitar 1):

E|--7--------------------4--|
B|--7--------------------4--|
G|--8--------------------4--|
D|--9--------------------6--|
A|--9--------------------6--|
E|--7--------------------4--|

Bridge (guitar 2 in between chords):

E|---------------------------------------------------|
B|---------------------------------------------------|
G|---------------------------------------------------|
D|---------------------------------------------------|
A|--9v--13--13--11--11--9v--9--9v--------9--9--9--9--|
E|---------------------------------------------------|

Ending:

E|--7--0--4--0--|
B|--7--0--5--0--|
G|--8--1--6--1--|
D|--9--2--6--2--|
A|--9--2--4--2--|
E|--7--0-----0--|

Ending Lead a:

E|--11--12p11-----------11--12p11------11--12--14t--12t--11t--12p11--|
B|-------------12------------------12--------------------------------|
G|-----------------11v-----------------------------------------------|
D|-------------------------------------------------------------------|
A|-------------------------------------------------------------------|
E|-------------------------------------------------------------------|

Ending Lead b:

E|--11--12p11------11--12--14/16--14--12--11h12p11--|
B|-------------12-----------------------------------|
G|--------------------------------------------------|
D|--------------------------------------------------|
A|--------------------------------------------------|
E|--------------------------------------------------|

(/) Slide Up  
(\) Slide Down  
(h) Hammer On  
(p) Pull Off  
(b) Bend 
(r) Release 
(v) Vibrato
(t) Tremolo Picking
 
 
I Kill Giants - Collector :: indexed at Ultimate Guitar.
Collector tabs @ 911Tabs
People who played I Kill Giants - Collector also played these songs by I Kill Giants:
Collector Tab, Part 3 Tab, Part 3

Quick tip, so you can enjoy Collector even more:

YourChords.com Guitar Chords and Tabs Archive is currently indexing over 240'000 songs from 21'000+ different artists. And new chords just keep on coming in, so you will surely never run out of them.

Show us your talent, perform Collector!

Here you can post a video or audio performance. Tell me more ...
Where can we find your performance? Tell me more ...
Your comment:
Please, log in to post your performance.