Artists by letter: A B C D E F G H I J K L M N O P Q R S T U V W X Y Z 0-9

Thank You For Having The Courage To Help A Friend - I Have Dreams


 
Thank You For Having The Courage To Help A Friend
I HAVE DREAMS - THANK YOU SO MUCH FOR HAVING THE COURAGE TO HELP A FRIEND

* = Harmonic

    e|----------15------------------------|
    b|-------13----13----13---------------|
GTR G|----16----------16------------------|
 1  D|-14---------------------------------| 
    A|----------------------2------2------|
    E|----------------------0--0-0-0--0-0-|
                               P M    P M

    e|------------------------------------|
    b|------------------------------------|
GTR G|------------------------------------|
 2  D|------------------------------------|
    A|----------------------2------2------|
    E|----------------------0--0-0-0--0-0-|
                               P M    P M

    e|----------15-------------------------|
    b|-------13----13----13----------------|
GTR G|----16----------16-------------------|
 1  D|-14----------------------------------| 
    A|----------------------2-------2------|
    E|----------------------0--0000-0-0000-|
                               PMPM   PMPM

    e|-------------------------------------|
    b|-------------------------------------|
GTR G|-------------------------------------|
 2  D|-------------------------------------|
    A|----------------------2-------2------|
    E|----------------------0--0000-0-0000-|
                               PMPM   PMPM

    e|----------15-------------------------|
    b|-------13----13----13----------------|
GTR G|----16----------16-------------------|
 1  D|-14----------------------------------| 
    A|----------------------2-------2------|
    E|----------------------0--0000-0-0000-|
                               PMPM   PMPM

    e|-------------------------------------|
    b|-------------------------------------|
GTR G|-------------------------------------|
 2  D|-2-----------------------------------|
    A|-2-(ring out)---------2-------2------|
    E|-0--------------------0--0000-0-0000-|
                               PMPM   PMPM

    e|----------15-------------------------|
    b|-------13----13----13----------------|
GTR G|----16----------16-------------------|
 1  D|-14----------------------------------| 
    A|----------------------2-------2------|
    E|----------------------0--0000-0-0000-|
                               PMPM   PMPM

    e|----------------------------------------|
    b|----------------------------------------|
GTR G|----------------------------------------|
 2  D|-2--------------------------------------|
    A|-2-(ring out/pick slide)-2-------2------|
    E|-0-----------------------0--0000-0-0000-|
                                  PMPM   PMPM

    e|-------------------|
    b|-13-13-13-13-13-13-|
GTR G|-16-16-16-16-16-16-|
 1  D|-------------------| 
    A|-------------------|
    E|-------------------|

    e|------------------------------------------------|
    b|-13-13-13-13-13-13--13-13-13-13-13-13--13-13-13-|
GTR G|-16-16-16-16-16-16--16-16-16-16-16-16--16-16-16-|
 1  D|------------------------------------------------| 
    A|------------------------------------------------|
    E|------------------------------------------------|

    e|-------------------------------------------|
    b|-------------------------------------------|
GTR G|-------------------------------------------|
 2  D|-------------------------------------------|
    A|-2-----2-----2-2--2-----2-----2-2--2-----2-|
    E|-0-000-0-000-0-0--0-000-0-000-0-0--0-000-0-|
         P M   P M        P M   P M        P M

small break

    e|-------------------------------------------------------------------|
    b|-13-13-13-13-13-13--13-13-13-13-13-13--13-13-13-13-13-13--13-13-13-|
GTR G|-16-16-16-16-16-16--16-16-16-16-16-16--16-16-16-16-16-16--16-16-16-|
 1  D|-------------------------------------------------------------------| 
    A|-------------------------------------------------------------------|
    E|-------------------------------------------------------------------|

    e|----------------------------------------------------|
    b|----------------------------------------------------|
GTR G|----------------------------------------------------|
 2  D|----------------------------------------------------|
    A|-2-----2--2-----2-----2-2--2-----2-----2-2--2-----2-|
    E|-0-000-0--0-000-0-000-0-0--0-000-0-000-0-0--0-000-0-|
         P M      P M   P M        P M   P M        P M

    e|-----------------------------------------------------------------|
    b|-----------------------------------------------------------------|
GTR G|-5-0-0-7-0-0-9-0-0-10-0-0-9-0-7-0-5-0-0-7-0-0-9-0-0-10-0-0-9-7-0-|
 1  D|-----------------------------------------------------------------| 
    A|-----------------------------------------------------------------|
    E|-----------------------------------------------------------------|

    e|-----------------------------------------------------------------|
    b|-----------------------------------------------------------------|
GTR G|--------------------------------------------------7--------------|
 2  D|--------------------------------3-----------------7--------------|
    A|--------------------------------3-(ring out)------5-(ring out)---|
    E|--------------------------------1--------------------------------|

    e|-----------------------------------------------------------------|
    b|-----------------------------------------------------------------|
GTR G|-5-0-0-7-0-0-9-0-0-10-0-0-9-0-7-0-5-0-0-7-0-0-9-0-0-10-0-0-9-7-0-|
 1  D|-----------------------------------------------------------------| 1,2,4
    A|-----------------------------------------------------------------|
    E|-----------------------------------------------------------------|

    e|-----------------------------------------------------------------|
    b|-----------------------------------------------------------------|
GTR G|--------------------------------------------------7--------------|
 2  D|-7------------------------------3-----------------7--------------| 1,2,4
    A|-7-(ring out)-------------------3-(ring out)------5-(ring out)---|
    E|-5------------------------------1--------------------------------|

    e|-----------------------------------------------------------------|
    b|-----------------------------------------------------------------|
GTR G|-5-0-0-7-0-0-9-0-0-10-0-0-9-0-7-0-5-0-0-7-0-0-9-0-0-10-0-0-9-7-0-| 3,5
 1  D|-----------------------------------------------------------------| 
    A|-----------------------------------------------------------------|
    E|-----------------------------------------------------------------|

    e|--------------------------------------------------------------|
    b|--------------------------------------------------------------|
GTR G|--------------------------------------------------------------|
 2  D|-7------------------------------3--------------------10----6--| 3,5
    A|-7-(ring out)-------------------3-(ring out)---------10----6--|
    E|-5------------------------------1-----------------88-8--66-6--|
                                                        PM    PM

    e|------------------|
    b|---------7-(7)----|
GTR G|---------10(10)---|
 1  D|------------------| 
    A|-0-0-0-0--------0-|
    E|------------------|
       P M P M

    e|------------------|
    b|---------7--------|
GTR G|---------10-------|
 1  D|------------------| 
    A|-0-0-0-0--------0-|
    E|------------------|
       P M P M

    e|------------------|
    b|---------7--------|
GTR G|---------10-------|
 2  D|---------------7*-| 
    A|-0-0-0-0-------7*-|
    E|------------------|
       P M P M

     e|----------------------|
     b|---------7-(7)--------|
GTR  G|---------10(10)-------|
1+2  D|----------------------| 
     A|-0-0-0-0--------7-8\7-|
     E|----------------5-6\5-|
        P M P M

    e|-------------------|
    b|---------7---------|
GTR G|---------10-----10-|
 1  D|------------8-7----| 
    A|-0-0-0-0-----------|
    E|-------------------|
       P M P M

    e|-------------------|
    b|---------7---------|
GTR G|---------10--------|
 2  D|-------------------|
    A|-0-0-0-0-----------|
    E|-------------------|
       P M P M

     e|----------------------|
     b|---------7-(7)--------|
GTR  G|---------10(10)-------|
1+2  D|----------------------| x3
     A|-0-0-0-0--------7-8\7-|
     E|----------------5-6\5-|
        P M P M

     e|---------------------------|
     b|---------7-(7)-------------|
GTR  G|---------10(10)------------|
1+2  D|-------------------8----10-| 
     A|-0-0-0-0-----------8----10-|
     E|----------------66-6-88-8--|
        P M P M        PM   PM
      
     e|----------------------|
     b|---------7-(7)--------|
GTR  G|---------10(10)-------|
1+2  D|----------------------| x3
     A|-0-0-0-0--------7-8\7-|
     E|----------------5-6\5-|
        P M P M 

     e|------------|
     b|---------7--|
GTR  G|---------10-|
1+2  D|------------| 
     A|-0-0-0-0----|
     E|------------|
        P M P M

     e|----------------------|
     b|---------7-(7)--------|
GTR  G|---------10(10)-------|
1+2  D|----------------------| x3
     A|-0-0-0-0--------7-8\7-|
     E|----------------5-6\5-|
        P M P M

     e|---------------------------|
     b|---------7-(7)-------------|
GTR  G|---------10(10)------------|
1+2  D|-------------------8----10-| 
     A|-0-0-0-0-----------8----10-|
     E|----------------66-6-88-8--|
        P M P M        PM   PM

     e|----------------|
     b|---------7-(7)--|
GTR  G|---------10(10)-|
1+2  D|----------------|
     A|-0-0-0-0--------|
     E|----------------|
        P M P M

    e|---------------------------------------------------------------|
    b|---------------------------------------------------------------|
GTR G|-9--9--9--9--9--6--9--9--9--7-7--9--9--9--9--9--9--9--9--9-6-6-|
 1  D|-7--7--7--7--7--7--7--7--7--7-7--7--7--7--7--7--7--7--7--7-7-7-| 
    A|-7--7--7--7--7--7--7--7--7--7-7--7--7--7--7--7--7--7--7--7-7-7-|
    E|---------------------------------------------------------------|

    e|---------------------------------------------------------------|
    b|---------------------------------------------------------------|
GTR G|-9--9--9--9--9--6--9--9--9--7-7--9--9--9--9--9--9--9--9--9-6-6-|
 1  D|-7--7--7--7--7--7--7--7--7--7-7--7--7--7--7--7--7--7--7--7-7-7-| 
    A|-7--7--7--7--7--7--7--7--7--7-7--7--7--7--7--7--7--7--7--7-7-7-|
    E|---------------------------------------------------------------|

    e|---------------------------------------------------------------|
    b|----------------------------------------------------------10-9-|
GTR G|---------------------------------------------------------------|
 2  D|---------------------------------------------------------------|
    A|---------------------------------------------------------------|
    E|---------------------------------------------------------------|

    e|-------------------------------------------------|
    b|-------------------------------------------------|
GTR G|-9999999999-6-999999-7777-99999999999999999-6666-|
 1  D|-7777777777-7-777777-7777-77777777777777777-7777-| 
    A|-7777777777-7-777777-7777-77777777777777777-7777-|
    E|-------------------------------------------------|

    e|--------------------------------------------------------------------------------|
    b|-10101010101010101010-7-101010101010-9999-10101010101010101010101010101010-9999-|
GTR G|-9-9-9-9-9-9-9-9-9-9--9-9-9-9-9-9-9--9999-9-9-9-9-9-9-9-9-9-9-9-9-9-9-9-9--9999-|
 2  D|-7-7-7-7-7-7-7-7-7-7--7-7-7-7-7-7-7--7777-7-7-7-7-7-7-7-7-7-7-7-7-7-7-7-7--7777-|
    A|--------------------------------------------------------------------------------|
    E|--------------------------------------------------------------------------------|

    e|-------------------------------------------------|
    b|-------------------------------------------------|
GTR G|-9999999999-6-999999-7777-99999999999999999-6666-|
 1  D|-7777777777-7-777777-7777-77777777777777777-7777-| 
    A|-7777777777-7-777777-7777-77777777777777777-7777-|
    E|-------------------------------------------------|

    e|----------------------------------------------------------|
    b|-7777777777-9-999999-10-9-101010101010101010-12-12-121212-|
GTR G|----------------------------------------------------------|
 2  D|-4444444444-6-666666-6--6-7-7-7-7-7-7-7-7-7--9--9--9-9-9--|
    A|----------------------------------------------------------|
    E|----------------------------------------------------------|

    e|-------------------------------------------------|
    b|-------------------------------------------------|
GTR G|-9999999999-6-999999-7777-99999999999999999-6666-|
 1  D|-7777777777-7-777777-7777-77777777777777777-7777-| 
    A|-7777777777-7-777777-7777-77777777777777777-7777-|
    E|-------------------------------------------------|

    e|-----------------------------------------------------------------------------|
    b|-1414141414141414-1515151515-14141414-1212-14141414141414141414141414-151515-|
GTR G|-----------------------------------------------------------------------------|
 2  D|-1111111111111111-1212121212-12121212-1212-11111111111111111111111111-121212-|
    A|-----------------------------------------------------------------------------|
    E|-----------------------------------------------------------------------------|

    e|-------------------------------------------------|
    b|-------------------------------------------------|
GTR G|-9999999999-6-999999-7777-99999999999999999-6666-|
 1  D|-7777777777-7-777777-7777-77777777777777777-7777-| 
    A|-7777777777-7-777777-7777-77777777777777777-7777-|
    E|-------------------------------------------------|

    e|---------------------------------------------------------------|
    b|-1717171717171717171717171717-15-141414141414141414141414-1212-|
GTR G|---------------------------------------------------------------|
 2  D|-1414141414141414141414141414-14-111111111111111111111111-9-9--|
    A|---------------------------------------------------------------|
    E|---------------------------------------------------------------|

    e|-----------------------------------------------------------|
    b|-----------------------------------------------------------|
GTR G|-9999999999-6-999999-7777-14141414141414141414141414141414-|
 1  D|-7777777777-7-777777-7777----------------------------------| 
    A|-7777777777-7-777777-7777-12121212121212121212121212121212-|
    E|-----------------------------------------------------------|

    e|-----------------------------------------------------------------------------|
    b|-101010101010101010101010-99999-10101010101010101010101010101010101010101010-|
GTR G|-----------------------------------------------------------------------------|
 2  D|-7-7-7-7-7-7-7-7-7-7-7-7--77777-7-7-7-7-7-7-7-7-7-7-7-7-7-7-7-7-7-7-7-7-7-7--|
    A|-----------------------------------------------------------------------------|
    E|-----------------------------------------------------------------------------|

     e|--------------------|
     b|-------11(11)----11-|
GTR  G|-------14(14)----14-|
1+2  D|--------------------| 1,2,3,5,6,7 
     A|--------------------|
     E|-0-0-0---------0----|
        PMP M         PM

     e|--------------------|
     b|-------11---12---13-|
GTR  G|-------14---15---16-|
1+2  D|--------------------| 4,8
     A|--------------------|
     E|-0-0-0----0----0----|
        PMP M    PM   PM

     e|-------------------|
     b|-------11(1111)-11-|
GTR  G|-------14(1414)-14-|
1+2  D|-------------------| 1
     A|-------------------|
     E|-00-0-0------------|
        PM P M      

     e|-------------------|
     b|-------11(11)---11-|
GTR  G|-------14(14)---14-|
1+2  D|-------------------| 2,3
     A|-------------------|
     E|-00-0-0-------0----|
        PM P M       PM

    e|-------------------|
    b|-------11(11)---13-|
GTR G|-------14(14)---16-|
 1  D|-------------------| 4
    A|-------------------|
    E|-00-0-0-------0----|
       PM P M       PM

    e|---------------------|
    b|-------11(11)--------|
GTR G|-------14(14)--------|
 1  D|-----------------10--| 4
    A|-----------------10--|
    E|-00-0-0-------0--8---|
       PM P M       PM

     e|-------------------|
     b|-------11(11)---11-|
GTR  G|-------14(14)---14-|
1+2  D|-------------------| x3
     A|-------------------|
     E|-00-0-0-------0----|
        PM P M       PM

     e|--------------------|
     b|-------11---12---13-|
GTR  G|-------14---15---16-|
1+2  D|--------------------| 
     A|--------------------|
     E|-0-0-0----0----0----|
        PMP M    PM   PM

     e|--------------------------------------------------|
     b|--------------------------------------------------|
GTR  G|--------------------------------------------------|
1+2  D|--------------------------------------------------| 
     A|--------------------------------------------------|
     E|-000000000000000000000000000000000000000000000000-|
        PMPMPMPMPMPMPMPMPMPMPMPMPMPMPMPMPMPMPMPMPMPMPMPM

    e|--------------------------------------------------|
    b|--------------------------------------------------|
GTR G|--------------------------------------------------|
 1  D|--------------------------------------------------| 
    A|--------------------------------------------------|
    E|-000000000000000000000000000000000000000000000000-|
       PMPMPMPMPMPMPMPMPMPMPMPMPMPMPMPMPMPMPMPMPMPMPMPM

    e|-------------------------------------------------------------|
    b|-------------------------------------------------------------|
GTR G|-12121212121212121212121212-13131313131313131313131313131313-|
 2  D|-------------------------------------------------------------|
    A|-10101010101010101010101010-11111111111111111111111111111111-|
    E|-------------------------------------------------------------|

    e|----------15------------------------|
    b|-------13----13----13---------------|
GTR G|----16----------16------------------|
 1  D|-14---------------------------------| 
    A|----------------------2--2-2-2--2-2-|
    E|----------------------0--0-0-0--0-0-|
                               P M    P M

    e|------------------------------------|
    b|------------------------------------|
GTR G|------------------------------------|
 2  D|------------------------------------|
    A|----------------------2--2-2-2--2-2-|
    E|----------------------0--0-0-0--0-0-|
                               P M    P M

    e|----------15-------------------------|
    b|-------13----13----13----------------|
GTR G|----16----------16-------------------|
 1  D|-14----------------------------------| x3 
    A|----------------------2-------2------|
    E|----------------------0--0000-0-0000-|
                               PMPM   PMPM

    e|-------------------------------------|
    b|-------------------------------------|
GTR G|-------------------------------------|
 2  D|-2-----------------------------------| x3
    A|-2-(ring out)---------2-------2------|
    E|-0--------------------0--0000-0-0000-|
                               PMPM   PMPM

     e|--------------------|
     b|-13-13-13-13-13-13--|
GTR  G|-16-16-16-16-16-16--|
1+2  D|--------------------| x4
     A|--------------------|
     E|--------------------|

    e|--------------------|
    b|-13-13-13-13-13-13--|
GTR G|-16-16-16-16-16-16--|
 1  D|--------------------| x3
    A|--------------------|
    E|--------------------|

    e|-------------------------------------------|
    b|-------------------------------------------|
GTR G|-5-5-5-5-5-6-5-5-5-5-5-6-17-17-17-17-17-18-|
 2  D|-------------------------------------------|
    A|-------------------------------------------|
    E|-------------------------------------------|

    e|----------|
    b|-13-13-13-|
GTR G|-16-16-16-|
 1  D|----------|
    A|----------|
    E|----------|

    e|-------|
    b|-------|
GTR G|-5-5-5-|
 2  D|-------|
    A|-------|
    E|-------|

END
 
 
I Have Dreams - Thank You For Having The Courage To Help A Friend :: indexed at Ultimate Guitar.
Thank You For Having The Courage To Help A Friend tabs @ 911Tabs
People who played I Have Dreams - Thank You For Having The Courage To Help A Friend also played these songs by I Have Dreams:
Thank You For Having The Courage To Help A Friend Tab, I Dont Imagine You And I Anymore Tab, I Dont Imagine You And I Anymore

Quick tip, so you can enjoy Thank You For Having The Courage To Help A Friend even more:

If you don't really know how to deal with "Absus4" chord and his equally confusing brothers, just put the mouse cursor over them and you will be shown a helpful chord diagram.

Show us your talent, perform Thank You For Having The Courage To Help A Friend!

Here you can post a video or audio performance. Tell me more ...
Where can we find your performance? Tell me more ...
Your comment:
Please, log in to post your performance.