Artists by letter: A B C D E F G H I J K L M N O P Q R S T U V W X Y Z 0-9

 
The Storm I Ride
Band:  I
Album: Between Two Worlds
Song:  The Storm I Ride

Copyright (c)  (Nuclear Blast) (2006)
Version 1.0 - (10/02/07)



.  - palm mute           /  - slide up to
\  - slide down to       ~  - vibrato
h  - hammer on           b  - Bend
p  - pull off            Suffixes for bend
t  - tap                 f  - full bend    h - half bend
ph - pinched harmonic    q  - quarter bend t - tap bend
*  - see comment         ^  - Hold bend    r release bend
x  - Stuccatto           ~  - vibrato bend
,  - slight palm mute    () - ghost note, sustained note
"  - tremolo note        <> - harmonic
pb - pre bend

Tuning D G C F A D



 Main Riff

 Guitar 1
[--------------------------------------------------|
[-5-5---7/8-8-8-8-3-5p3---5-5---7/8-8-8-8-/101010--|
[-4-4---6/7-7-7-7-4-----6-4-4---6/7-7-7-7-/7-7-7---|
[-2-2-x-4/5-5-5-5---------2-2-x-4/5-5-5-5----------|
[--------------------------------------------------|
[--------------------------------------------------|
[Guitar 2
[--------------------------------------------------|
[-5-5---7/8-8-8-8-3-5p3---5-5---7/8-8-8-8----------|
[-4-4---6/7-7-7-7-4-----6-4-4---6/7-7-7-7--0-0-0---|
[-2-2-x-4/5-5-5-5---------2-2-x-4/5-5-5-5--0-0-0---|
[--------------------------------------------------|
[--------------------------------------------------|

 Guitar 1
                                      ph~~~
[-----------------------------------------|
[-5-5---7/8-8-8-8-3-5p3---5-5-3-----------|
[-4-4---6/7-7-7-7-4-4-4-6-4-4-2--2--0-----|
[-2-2-x-4/5-5-5-5---------2-2-0--2--0--2--|
[--------------------------------0--------|
[-----------------------------------3-----|
[Guitar 2
[-----------------------------------------|
[-5-5---7/8-8-8-8-3-5p3---5-5-3-----------|
[-4-4---6/7-7-7-7-4-4-4-6-4-4-2--2--0--0--|
[-2-2-x-4/5-5-5-5---------2-2-0--2--0--0--|
[--------------------------------0--------|
[-----------------------------------3--3--|

 Rpt Main Riff



 Verse



 
|----------------------------------------|
|-3-4-3-4-3-4-3-3-4\3-4-3-4-3-4-3--------|
|-2-2-2-2-2-2-2-2-3\2-2-2-2-2-2-2-7\5\3--|
|-0-0-0-0-0-0-0-0-1-0-0-0-0-0-0-0-7\5\3--|
|-0-----------------0--------------------|
|----------------------------------------|

                                    
|----------------------------------------|
|-3-4-3-4-3-4-3-3-4\3-4-3-4-3------------|
|-2-2-2-2-2-2-2-2-3\2-2-2-2-2-2-1--------|
|-0-0-0-0-0-0-0-0-1-0-0-0-0-0-3-2--------|
|-0-----------------0-------------3-0----|
|----------------------------------------|

 Rpt above

 Rpt Main Riff
 Rpt Verse riff

 Chorus
                      [----PM---]let ring out
|---------------------------------------------------------|
|-----------------------------------0-3-------------------|
|-------------------9-------------0-----2--------------9--|
|-5-5-5-5-4-4-4-4-9-9----------------------7-7-7-7-9-9-9--|
|-3-3-3-3-4-4-4-4-7-7----------------------5-5-5-5-7-7-7--|
|-3-3-3-3-2-2-2-2-0---0-0-0-0-0-0----------5-5-5-5-7-7----|

[----PM---]let ring out
|------------------------------------|
|---------------0-3------------------|
|-------------0-----2--------7---9---|
|--------------------------7---9-9---|
|------------------------5-----7-7---|
|-0-0-0-0-0-0----------5-------7-----|

[----PM---]let ring out
|-------------------------------------------------|
|---------------0-3----------1--------------------|
|-------------0-----2--7-7---0---0--0-2-(2)-2-0---|
|----------------------7-7---2--2--2--2-(2)-----2-|
|----------------------5-5-6-3-3--3---0-(0)-------|
|-0-0-0-0-0-0-------------------------------------|

    [----PM---]let ring out
|----------------------------------|
|-----------------0-3--------------|
|-9-------------0-----2--7-7-7/9---|
|-9----------------------7-7-7/9-9-|
|-7----------------------5-5-5/7-7-|
|---0-0-0-0-0-0----------5-5-5/7---|

[----PM---]let ring out
|--------------------------------|
|---------------0-3--------------|
|-------------0-----2------------|
|--------------------------7-/9--|
|------------------------5---/7--|
|-0-0-0-0-0-0----------5-----/7--|

[----PM---]let ring out
|-----------------------------------------------|
|---------------0-3----------1------------------|
|-------------0-----2--7-7---0---0--0-2-(2)-2-0-|
|----------------------7-7---2--2--2--2-(2)-----|
|----------------------5-5-6-3-3--3---0-(0)-----|
|-0-0-0-0-0-0-----------------------------------|


 Guitar 1
   [---PM--]   PM    PM    [---PM--]   PM    PM
[---------------------------------------------------|
[---------------------------------------------------|
[---------------------------------------------------|
[-2-------------------------------------------------|
[-2-------------------------------------------------|
[-0-000-000-3p0-0-6p0-0-3p0-000-000-3p0-0-6p0-0-3p0-|
[Guitar 2
[---------------------------------------------------|
[---------------------------------------------------|
[---------------------------------------------------|
[-2-----------------------2-------------------------|
[-2-----------------------2-------------------------|
[-0-----------------------0-------------------------|


 With phaser effect
 Guitar 1
   [---PM--]   PM    PM    [---PM--]   PM    PM
[---------------------------------------------------|
[---------------------------------------------------|
[---------------------------------------------------|
[-5---------5p4--4p2---2p0-5---------5p4--4p2---2p0-|
[-3------------------------3------------------------|
[-3-3-333-3----3-----3-----3-3-333-3----3-----3-----|
[Guitar 2
[---------------------------------------------------|
[---------------------------------------------------|
[---------------------------------------------------|
[-5------------------------5------------------------|
[-3------------------------3------------------------|
[-3------------------------3------------------------|

 Mid 8
  
                    h
|---------------------------------|
|-5p0-3p0-5p0-3-5-3-5p3p0-5p0-3---|
|---------------------------------|
|---------------------------------|
|---------------------------------|
|---------------------------------| Rpt 8 X over the following backing.

  [---------PM---------]    [-----PM-----]
|---------------------------------------------------|
|-------------------------------------------------3-|
|-------------------------------------------------2-|
|-2-----------2-2---2---0-2-----------------------0-|
|-2-----------2-2---2---0-2---------------5-5-5\4---|
|-0-0-0-0-0-0-0-0-0-0-0-----0-0-0-0-0-0-0-3-3-3\2---|

  [------PM------]   PM    PM 
|----------------------------------|
|----------------------------------|
|----------------------------------|
|-5---------------5p4---4p2---2p0--|
|-3---------------3-----3-----3----|
|-3-3-3-3-3-3-3-3-----3-----3------| Rpt

  [---------PM---------]    [-----PM-----]
|---------------------------------------------------|
|-------------------------------------------------3-|
|-------------------------------------------------2-|
|-2-----------2-2---2---0-2-----------------------0-|
|-2-----------2-2---2---0-2---------------5-5-5\4---|
|-0-0-0-0-0-0-0-0-0-0-0-----0-0-0-0-0-0-0-3-3-3\2---|

  [------PM------]   PM    PM 
|----------------------------------|
|----------------------------------|
|----------------------------------|
|-5---------------5p4---4p2---2p0--|
|-3---------------3-----3-----3----|
|-3-3-3-3-3-3-3-3-----3-----3------|

  [------PM------]   PM    PM 
|---------------------------------|
|---------------------------------|
|---------------------------------|
|-5---------------7-7-7-7-7-7-7-7-|
|-3---------------5-5-5-5-5-5-5-5-|
|-3-3-3-3-3-3-3-3-5-5-5-5-5-5-5-5-|


 Guitar solo

   ~~   ~~        ~~~~    h      h                    [--PM--]ph~~~
|-------------------------------------------------------------------|
|-12----12-------------------------12-------------------------------|
|-12----12-------------------------12-------------------------------|
|----14----14p12-14----------12-14-----14p12------------------------|
|----------------------12-14-----------------14-12-10-12-10-9-10----|
|-------------------------------------------------------------------|

      h           h              h     h                      ~~~~~
|----------------------------------------------10--------------------|
|-0-3-5p3trill-/7-8p7trill-/10p8-10p8-10p8-10b(10)r8-10p8-10p8-----0-|
|--------------------------------------------------------------------|
|--------------------------------------------------------------------|
|--------------------------------------------------------------------|
|--------------------------------------------------------------------|

                                   ~~~     h     h       h   h
|-12-11-12-0-11-9-8-0-7-5---7p5-------------------------------------|
|-------------------------8-----8-77---5-7-8-7p5-7p5----------------|
|----------------------------------------------------7-5-7p5-7p5\4--|
|-------------------------------------------------------------------|
|-------------------------------------------------------------------|
|-------------------------------------------------------------------|

              h~~              ~~~~~~
|-------------------12-15fb---15------15-12-14-15-14-15p14p12-14p12-|
|-------------------------------------------------------------------|
|-4-5p4\2/4p2-4--\0-------------------------------------------------|
|-------------------------------------------------------------------|
|-------------------------------------------------------------------|
|-------------------------------------------------------------------|

                                                                ~~~~
|----10-12p10\9-----------------------------------------------------|
|-15------------12-1215p12-14p12----12-14p12p11-12-11-10------------|
|--------------------------------15----------------------13-12-11---|
|-------------------------------------------------------------------|
|-------------------------------------------------------------------|
|-------------------------------------------------------------------|

 Backing for solo is main Riff played 2 X 

 Rpt Verse
 Rpt Chorus


|------|
|------|
|------|
|-2----|
|-2----|
|-0----|




END


 
 
I - The Storm I Ride :: indexed at Ultimate Guitar.
The Storm I Ride tabs @ 911Tabs
People who played I - The Storm I Ride also played these songs by I:
The Storm I Ride Tab, Bridges Of Fire Tab, Warriors Tab, Bridges Of Fire

Quick tip, so you can enjoy The Storm I Ride even more:

Try out the AutoScroller option ... It scrolls the page for you, so you can totally focus on nailing that solo. You can choose among different speeds using your mouse or your keyboard (keys 0, 1, 2 and 3).

Show us your talent, perform The Storm I Ride!

Here you can post a video or audio performance. Tell me more ...
Where can we find your performance? Tell me more ...
Your comment:
Please, log in to post your performance.