Artists by letter: A B C D E F G H I J K L M N O P Q R S T U V W X Y Z 0-9

 
Ked Sme Sami
-------------------------------------------------------------------------------
                             Ke? sme sami - HEX
-------------------------------------------------------------------------------
Tabbed by: Milan H.
E-mail: [email protected]


Easy-to-play song from Slovak band HEX.
Tabbed two guitars, accoustic for verse and rythm, electric for solo.
YouTube link to song: https://www.youtube.com/watch?v=lTyjA8-w57g

Legend: K - knock with whole fist (right hand)

Tuning: EADGBe

Rythm: Listen to the song and you should notice, that second note is played a bit longer.


Intro:


                     Leto je za rohom, ospalý de?, tma sa z oblohy valí, nikam nepôjdem, vezmem si knihu
   REPEAT 4x      || uvarím ?aj, ak chce? niekam ís?, so mnou nerátaj.
e|| ------------- ||---------------------------------------------------------------------------------|
B||:-------------:||---------------------------------------------------------------------------------|
G|| ------------- ||---------------------------------------------------------------------------------|
D|| ------------- ||---------------------------------------------------------------------------------|
A||:-------------:||-----------------------7K--7K----7K--7K----2K--2K----2K--2K----5K--5K----5K--5K--|
E|| --2-K--2--K-- ||--2K--2K----2K--2K---------------------------------------------------------------|


VERSE: Is mostly the same as intro, instead of note E on 7.th position on "A" string,
       you are playing Fis on 2.nd position on "E" string.


Guitar:
   
   V posteli le?a? celý de?, nohy prepletené, z platni pú??a? Sen, k cigaretám vi??e v ?okoláde,
   nám je dobre, tak ma zohrej v?ade.
e|-------------------------------------------------------------------------------------------|
B|-------------------------------------------------------------------------------------------|
G|-------------------------------------------------------------------------------------------|
D|-------------------------------------------------------------------------------------------|
A|--------------------------------------------2K--2K----2K--2K----5K--5K----5K----5K---------|
E|--2K--2K----2K--2K----0K--0K----0K----0K---------------------------------------------------|


Piano / Guitar riff   (It's played on various keys)
e|-------------------------------------------------------------------------------------------|
B|---------------------------------------------------------10---12--10-----------------------|
G|---------------------------------------------------------------------13--11--9-------------|
D|-------------------------------------------------------------------------------------------|
A|-------------------------------------------------------------------------------------------|
E|-------------------------------------------------------------------------------------------|



CHORUS: Rep. 2x

Rythm guitar

Ke? sme sami, som tak rád, ty si zástavka do neba s nápisom Nekone?ná.

   F#m                      E                       Bm                      D                
e|--------------------------------------------------2---2-2----2---2-2----------------------------|
B|--2---2-2----2---2-2------0---0-0----0---0-0------3---3-3----3---3-3------7---7-7----7-7-7-9--9-|
G|--2---2-2----2---2-2------2---2-2----2---2-2------4---4-4----4---4-4------7---7-7----7-7-7-9--9-|
D|--4---4-4----4---4-4------2---2-2----2---2-2------4---4-4----4---4-4------7---7-7----7-7-7-9--9-|
A|--4---4-4----4---4-4------1---1-1----1---1-1------2---2-2----2---2-2------5---5-5----5-5-5-7--7-|
E|--2---2-2----4---2-2------0---0-0----0---0-0----------------------------------------------------|


Solo guitar (TREMOLO until ending riff)  (at start, you can slide from 9.th position)
e|-----------------------------------------------------------------------------------------------------|
B|-------------------------------------------------------------------------------------10-12-10--------|
G|-11---------13-----14-----9----------11----9------7----------9------------11-----------------13-11-9-|
D|-----------------------------------------------------------------------------------------------------|
A|-----------------------------------------------------------------------------------------------------|
E|-----------------------------------------------------------------------------------------------------|


Play VERSE again (2x), then CHORUS, also 2x  (rythm guitar may chance a bit {added few strums}


Second verse lyrics

Na okne kvitne biely kvet, proti stresu si dám do ?álky jed.
Noviny ?ítam od poslednej strany, posadnutý krí?ovkami.
Mo?no z tej chvíle aj vzíde ?ivot, tak to chodí ke? v posteli je clivo.
Le?íme len tak prepletení, a obloha farbu mení...


BRIDGE

Muted strings, played E string on some positions (no idea, which ones :P ), just listen to the song.
Rythm guitar isn't playing in 1.st 1/3 of the bridge

Solo guitar

  U? ?a cítim, ke? sa blí?i?, vonia? ako v mlieku med.
e|---------------------------------------------------------------------------|
B|---------------------------------------------------------------------------|
G|---------------------------------------------------------------------------|
D|---------------------------------------------------------------------------|
A|---------------------------------------------------------------------------|
E|-x-x-x-x-x-x-x-x-x-x-x-x-x-x-x-x-x-x-x-x-x-x-x-x-x-x-x-x-x-x-x-x-x-x-x-x-x-| and so on...

______________________________________________________________________________



Rythm guitar
e|---------------------------------------------------------------------------|
B|---------------------------------------------------------------------------|
G|-11-------------------------------------------11----13-------14------------|
D|---------------------------------------------------------------------------|
A|---------------------------------------------------------------------------|
E|---------------------------------------------------------------------------|

Solo guitar

  U? ?a cítim, ke? ma chytí?, do srdca cvála jed a nieje to zlé
e|---------------------------------------------------------------------------|
B|---------------------------------------------------------------------------|
G|---------------------------------------------------------------------------|
D|---------------------------------------------------------------------------|
A|---------------------------------------------------------------------------|
E|-x-x-x-x-x-x-x-x-x-x-x-x-x-x-x-x-x-x-x-x-x-x-x-x-x-x-x-x-x-x-x-x-x-x-x-x-x-|


_______________________________________________________________________________________________



Rythm guitar(or bass)
e|-------------------------------------------------------------|
B|-------------------------------------------------------------|
G|-------------------------------------------------------------|
D|-------------------------------------------------------------|
A|-------------------------------------------------------------|
E|--2K---2K---------2K---2K----------2K---2K--------2K----2K---|

Solo guitar

  ....................a nieje to zlé
e|-------------------------------------------------------------|
B|-------------------------------------------------------------|
G|-------------------------------------------------------------|
D|-----------------------------------9-9-9-9-9-9-9-9-9-9-9-9-9-|
A|-----------------------------------9-9-9-9-9-9-9-9-9-9-9-9-9-|
E|-x-x-x-x-x-x-x-x--x-x-x-x-x-x-x-x--7-7-7-7-7-7-7-7-7-7-7-7-7-|


Play standart chorus, then goes outro.




OUTRO


Rythm guitar - play chorus as usually

Solo guitar
e|------------------------------------------------------------------------------------------------|
B|------------------------------------------------------------------------------------------------|
G|--9/11-11-11-11-11-11-11-11/13-13-13-13-14-14-14-14\---9-9-9-9-9-9-9-9/11-11-11-11-13-13-13-13\-|
D|------------------------------------------------------------------------------------------------|
A|------------------------------------------------------------------------------------------------|
E|------------------------------------------------------------------------------------------------|


Solo guitar (Hint: each note is played 8x, except ending riff)
e|--------------------------------------------------------------------------------------|
B|---------------------------------------------------------------------10-12-10---------|
G|--7-7-7-7-7-7-7-7-7/9-9-9-9-9-9-9-9/11-11-11-11-11-11-11-11-------------------13-11-9-|
D|--------------------------------------------------------------------------------------|
A|--------------------------------------------------------------------------------------|
E|--------------------------------------------------------------------------------------|

Solo guitar
e|----------------------------------------------------------------------------------------------------|
B|----------------------------------------------------12-12-12-12-12-12-12-12-10-10-10-10-------------|
G|--9/11-11-11-11-11-11-11-11/13-13-13-13-14-14-14-14-------------------------------------13-13-13-13-|
D|----------------------------------------------------------------------------------------------------|
A|----------------------------------------------------------------------------------------------------|
E|----------------------------------------------------------------------------------------------------|

Solo guitar (Last 3 notes on ending riff may be incorrect, you can help me fix it :))
e|----------------------------------------------------------------------------------------------------|
B|------------------------------------------------------------------------------10-12-10--------------|
G|--9/11-11-11-11-11-11-11-11-11-11-11-11-11-11-11-9--9/11-11-11-11-11-11-11-11----------13-11-9------|
D|----------------------------------------------------------------------------------------------------|
A|----------------------------------------------------------------------------------------------------|
E|----------------------------------------------------------------------------------------------------|


Order:

1x Intro
1x Verse
2x Chorus
2x Verse
2x Chorus
1x Bridge
2x Chorus
1x Outro


Have fun and enjoy this lovely song ^^

************************************
| K - knock with whole fist (right hand)
| /   slide up
| \   slide down
| h   hammer-on
| p   pull-off
| ~   vibrato
| +   harmonic
| x   Mute note
| b   Bend
| pb  Pre-bend
| br  Bend release
| pbr Pre-bend release
| brb Bend release bend

************************************
 
 
Hex - Ked Sme Sami :: indexed at Ultimate Guitar.
Ked Sme Sami tabs @ 911Tabs
People who played Hex - Ked Sme Sami also played these songs by Hex:
Ked Sme Sami Tab

Quick tip, so you can enjoy Ked Sme Sami even more:

You might want to transpose the song if it is too high or too low for you to sing. Just click the desired option while playing a song and all the chords will automatically be transponded into a new key.

Show us your talent, perform Ked Sme Sami!

Here you can post a video or audio performance. Tell me more ...
Where can we find your performance? Tell me more ...
Your comment:
Please, log in to post your performance.