Artists by letter: A B C D E F G H I J K L M N O P Q R S T U V W X Y Z 0-9

Words I Might Have Ate (ver 3) - Green Day


 
Words I Might Have Ate
-------------------------------------------------------------------------------
                             Words I Might Have Ate - Green Day
-------------------------------------------------------------------------------
Tabbed by: Finny
E-mail:[email protected]

Tuning:standard

Intro

e|--------------0--5---------------------------------------------------------|
B|---2---------2-------------------------------------------------------------|
G|---2--0--------------------------------------------------------------------|
D|---2--0--------------------------------------------------------------------|
A|---0--x--------------------------------------------------------------------|
E|------3--------------------------------------------------------------------|

   Palm muted,figure out the strumming,it's not hard


Verse
    A   G   A   (figure out the strums again)
e|--------------------------------------0------------------------------------|
B|--2-------2--3-2-2-2------------2--0--0------------------------------------|
G|--2---0---2--2-2-4-2------------2--0--1------------------------------------|
D|--2---0---2--2-2-2-2------------2--0--2------------------------------------|
A|--0---x---0--0-0-0-0------------0--x--2------------------------------------|
E|------3----------------------------3--0------------------------------------|x2
   "Now it seems...               My brain drifts back..
    Like sitting on..             The love i bitched about..


  Chorus
e|---------------------------------------------------------------------------|
B|------------------------2--------------------------------------------------|
G|--7---------------7--9--2--------------------------------------------------|
D|--7--7----7-5-2---7--9--2--------------------------------------------------|
A|--5--7----7-5-2---5--7--0--------------------------------------------------|
E|-----5----5-3-4------------------------------------------------------------|
                           PM.............

Play the verse and chorus here

Interlude 1
e|---------------------------------------------------------------------------|
B|--2--0--2----------2-2-2---------------------------------------------------|
G|--2--0--2----------2-2-2---0-0-0-0-0---------------------------------------|
D|--2--0--2-----OR---2-2-2---0-0-0-0-0---------------------------------------|
A|--0--x--0----------0-x-0---x-x-x-x-x---------------------------------------|
E|-----3---------------4-----3-3-3-2-3---------------------------------------|x4

Interlude 2 (palm muted)
e|-------0--------------------------0-----------0----------------------------|
B|--2--0-0-----------------------0--0--------0--0----------------------------|
G|--2--0-1--------2---2---2--2---0--1--------0--1----------------------------|
D|--2--0-2----OR----2---2---2--2-0--2--------0--2----------------------------|
A|--0--x-2-----------------------x--2--------x--2----------------------------|
E|-----3-0-----------------------3--0--x4----3--0-x3-------------------------|
 
play interlude 1 x4
chorus 

outro is basically interlude 1 with some lyrics on it.
 

Lyrics:

Now it seems I can't keep my mind of you
My brain drifts back to better days we've been through
Like sitting on blacktop of the school grounds
The love I witched about I finally found

But now it's gone and I take the blame
So there's nothing I can do but take the pain
Why?

Now I dwell on what you remind me of
A sweet young girl who sacrificed her love
As for me... I am blind without a cause
And now I reazlied what I have lost

It was something real that I could have had
Now I play the fool whose stable soul's gone bad
Why?

Tell me the words I might have said
That's pumping pressure deep inside my head
Was it bad enough to be too late?
Just tell me the words I might have ate

But now it's gone and I take the blame
So there's nothing I can do but take the pain
Why?



Now,this is just the way i play it, but all improvements/comments/corrections are welcome. :)
 
 
Green Day - Words I Might Have Ate :: indexed at Ultimate Guitar.
Words I Might Have Ate tabs @ 911Tabs

About the artist behind Words I Might Have Ate:

Green Day is an American punk trio formed in 1987.[1] The band has consisted of Billie Joe Armstrong (vocals, guitar), Mike Dirnt (bass guitar, vocals), and Tré Cool (drums, percussion) for the majority of its existence.

Green Day was originally part of the punk rock scene at 924 Gilman Street in Berkeley, California. Its early releases for independent record label Lookout! Records earned them a grassroots fanbase, some of whom felt alienated when the band signed to a major label.[2] Nevertheless, its major label debut Dookie (1994) became a breakout success and eventually sold over 10 million copies in the U.S. alone, and 15 million copies sold worldwide.[3] As a result, Green Day was widely credited, alongside fellow California punk bands The Offspring and Rancid, with reviving mainstream interest in and popularizing punk rock in the United States.[4][5] Green Day's three follow-up albums, Insomniac, Nimrod and Warning did not achieve the massive success of Dookie, but they were still successful, reaching double platinum and gold status respectively.[6] Green Day's 2004 rock opera American Idiot reignited the band's popularity with a younger generation, selling five million copies in the U.S.[7]

The band has sold over 65 million records worldwide,[8] including 22 million in the United States alone.[9] They also have three Grammy Awards, Best Alternative Album for Dookie, Best Rock Album for American Idiot, and Record of the Year for "Boulevard of Broken Dreams".

Indexed at Wikipedia.

Show us your talent, perform Words I Might Have Ate!

Here you can post a video or audio performance. Tell me more ...
Where can we find your performance? Tell me more ...
Your comment:
Please, log in to post your performance.