Artists by letter: A B C D E F G H I J K L M N O P Q R S T U V W X Y Z 0-9

Sex Drugs And Violence (ver 2) - Green Day


 
Sex Drugs And Violence
-------------------------------------------------------------------------------
                            Sex, Drugs and Violence - Green Day
-------------------------------------------------------------------------------
Tabbed by: Dylan H. (Username: Tunehalfstepdwn)
E-mail: [email protected]

Tuning: Standard
Intro

Please Rate or Comment, Need to know what the masses think.

I wanted to learn this song and all of the ones I found online sounded correct but were 
not the "official" way.
So I bought the tab book and tabbed it all out for you. If you notice any major mistakes 
or have any questions
feel free to email me.

e|-----------------|---------------------------|-----------------|-----------------------------|
B|--9--9-9-9-9-9-9-|--X--------------------9-9-|-9---9-9-9-9-9-9-|-----------------------------|
G|--9--9-9-9-9-9-9-|--X--6-----8-8-8-8-----9-9-|-9---9-9-9-9-9-9-|-X-------8-8-8-8-------------|
D|--9--9-9-9-9-9-9-|--X--7-----9-9-9-9-----9-9-|-9---9-9-9-9-9-9-|-X-11----9-9-9-9---2---------|
A|--7--7-7-7-7-7-7-|--X--7-----9-9-9-9-----7-7-|-7---7-7-7-7-7-7-|-X-11----9-9-9-9---2---------|
E|-----------------|-----5-----7-7-7-7---------|-----------------|---9-----7-7-7-7---0---------|
Verse

e|--0----0-0-0-0-0-------|-------------------------||--0----0-0-0-0-0------|-----------------|
B|--0----0-0-0-0-0-------|--2----2-2---2-2-2-------||--0----0-0-0-0-0---2--|--2------0--0-0--|
G|--1----1-1-1-1-1---2-2-|--2----2-2---2-2-2-------||--1----1-1-1-1-1---2--|--2------1--1-1--|
D|--2----2-2-2-2-2---2-2-|--2----2-2---2-2-2----2-2||--2----2-2-2-2-2---2--|--2------2--2-2--|
A|--2----2-2-2-2-2---0-0-|--0----0-0---0-0-0----2-2||--2----2-2-2-2-2---0--|--0------2--2-2--|
E|--0----0-0-0-0-0-------|----------------------0-0||--0----0-0-0-0-0------|------4--0--0-0--|


e|--0-----0-0-0-0-0-------|-------------------------|------------------------|------------------|
B|--0-----0-0-0-0-0-------|--2----2-2---2-2-2-------|--4------4-4--4--4--4--4|-4----4-----------|
G|--1-----1-1-1-1-1---2-2-|--2----2-2---2-2-2-------|--4------4-4--4--4--4--4|-4--4---4---------|
D|--2-----2-2-2-2-2---2-2-|--2----2-2---2-2-2----2-2|--4------4-4--4--4--4--4|-4--2---4--2-2--2-|
A|--2-----2-2-2-2-2---0-0-|--0----0-0---0-0-0----2-2|--4------2-2--2--2--2--2|-2--2---2--2-2--2-|
E|--0-----0-0-0-0-0-------|----------------------0-0|------------------------------------0-0--0-|

Pre-Chorus

e|-----------------------------|-----------------------------|----------------------------------|
B|-----------------------------|-----------------------------|----------------------------------|
G|-6-----6--6--6--6--6----x--x-|-8---8--8--8---------9--9--9-|--6-------6--6---6---6---6----x--x|
D|-7-----7--7--7--7--7----x--x-|-9---9--9--9---------9--9--9-|--7-------7--7---7---7---7----x--x|
A|-7-----7--7--7--7--7----x--x-|-9---9--9--9---------7--7--7-|--7-------7--7---7---7---7----x--x|
E|-5-----5--5--5--5--5----x--x-|-7---7--7--7----0------------|--5-------5--5---5---5---5----x--x|

e|-----------------------------|-------------------------------|-------------------------------|
B|-----------------------------|-------------------------------|-------------------------------|
G|-----8--8--8---8------9--9--9|--6----6--6--6--6--6---x---x---|-8---8--8--8-8--8--8-----x--x--|
D|-----9--9--9---9------9--9--9|--7----7--7--7--7--7---x---x---|-9---9--9--9-9--9--9-----x--x--|
A|-----9--9--9---9------7--7--7|--7----7--7--7--7--7---x---x---|-9---9--9--9-9--9--9-----x--x--|
E|-----7--7--7---7---0---------|--5----5--5--5--5--5---x---x---|-7---7--7--7-7--7--7-----x--x--|

e|-----------------------|---------------------|-----------------|-----------------------|
B|-----------5-----5-5-5-|---5-5-5-5-5-5-------|-----------------|-----------------------|
G|-----6-6-6-6-----6-6-6-|---6-6-6-6-6-6-------|-6---6-6-6-6-6-8-|---8-8-8---8-8-8---x-x-|
D|-----6-6-6-6-----6-6-6-|---6-6-6-6-6-6----0--|-7---7-7-7-7-7-9-|---9-9-9---9-9-9---x-x-|
A|-----4-4-4-4-----4-4-4-|---4-4-4-4-4-4----0--|-7---7-7-7-7-7-9-|---9-9-9---9-9-9---x-x-|
E|-----------------------|------------------0--|-5---5-5-5-5-5-7-|---7-7-7---7-7-7---x-x-|

e|----------4-4-4----|-----------------------|-----------------|---------------------|
B|------4---4-4-4--5-|---5-5-5--5-5-5----x-x-|-----------------|---------------------|
G|------4---4-4-4--6-|---6-6-6--6-6-6----x-x-|-6--6-6-6-6-6--8-|--8-8-8--8-8-8-------|
D|-6----6---6-6-6--6-|---6-6-6--6-6-6----x-x-|-7--7-7-7-7-7--9-|--9-9-9--9-9-9-------|
A|-6----6---6-6-6--4-|---4-4-4--4-4-4--------|-7--7-7-7-7-7--9-|--9-9-9--9-9-9--0----|
E|-4----4---4-4-4----|-----------------------|-5--5-5-5-5-5--7-|--7-7-7--7-7-7--0----|

Chorus

e|---------------------|------------------|-------------------|---------------------|
B|---------------------|------------------|-------------------|---------------------|
G|---9---9---9-9-9-9-9-|-x-6---8-8-8-8-8--|--9----9-9-9-9-9-9-|-x-----8-8-8-8-8-----|
D|---9---9---9-9-9-9-9-|-x-7---9-9-9-9-9--|--9----9-9-9-9-9-9-|-x-11--9-9-9-9-9-----|
A|---7---7---7-7-7-7-7-|-x-7---9-9-9-9-9--|--7----7-7-7-7-7-7-|-x-11--9-9-9-9-9-----|
E|---------------------|---5---7-7-7-7-7--|-------------------|---9---7-7-7-7-7-----|

*All of the chords I'm putting over are the power chord version. If anyone doesn't know 
them, comment and I'll
add them in.*

E                    B              C#m             G#m
Well, I don't want____ to be___ an im - be - cile,____ but
A             E                   B
Je - sus____ made me___ that____ way.______

Verse *this is different than the first verse*
1. All my....                          run - a --- way____
e|-----------------|-----------------|--------------------|--------------------------|
B|-----------------|-----------------|--------------------|----2---------------------|
G|-----------------|-----------------|------------------2-|----2---------------------|
D|--2--------------|-2-2-2-2-2-2-2---|------------------2-|----2---------2----2--2-2-|
A|--2--2-2-2-2-2-2-|-0-0-0-0-0-0-0-0-|-2-2-2-2-2-2-2----0-|----0---------2----2--2-2-|
E|--0--0-0-0-0-0-0-|---------------0-|-0-0-0-0-0-0-0------|----------4---0----0--0-0-|

e|-0--------------|--------------------|------------------|---------------------|
B|-0--------------|--------------------|------------------|---------------------|
G|-1--------------|--------------------|----------------4-|----4-4--4-----------|
D|-2--------------|-2---2-2-2-2-2-2----|--4-4-4-4-4-4-4-4-|----4-4--4------7-7--|
A|-2--2-2-2-2-2-2-|-0---0-0-0-0-0-0--0-|--2-2-2-2-2-2-2-2-|----2-2--2------7-7--|
E|-0--0-0-0-0-0-0-|------------------0-|------------------|------------0---5-5--|

Guitar Solo                                                ~~~~~     ~~~~~
e|--0---0-0-0-----0-0|-0------0-0-0----0-0-|-0---0-0---------|------------0-0---|
B|--5---5-5-5-\4--4-4|-4-\-2--2-2-2-p0-0-2-|-0---2-2---------|------------0-0---|
G|-------------------|---------------------|-----------2-1-2-|-2--1-------------|
D|-------------------|---------------------|-----------------|-------2----------|
A|-------------------|---------------------|-----------------|------------------|
E|-------------------|---------------------|-----------------|------------------|

e|-0-0-0-0------0-0-|-0----0-0-0----0-0-|-0---0--0--0--0--0--7-|---7-----7----0-0---|
B|-5-5-5-5-\-4--4-4-|-4\-2-2-2-2-p0-0-2-|-0---0--0--0--0--0--7-|---7-9---7----0-0---|
G|------------------|-------------------|--------------------8-|---8-9---8----------|
D|------------------|-------------------|--------------------9-|---9-9---9----------|
A|------------------|-------------------|----------------------|--------------------|
E|------------------|-------------------|----------------------|--------------------|
                                                              ~~~~~~~~        ~~~~~~~~
e|-0---0-0-0-----0-0-|-0-----0-0-0-----0-0-|--0----0-0-----------|-------------------------|
B|-5---5-5-5-\-4-4-4-|-4-\-2-2-2-2 p0--0-2-|--0----2-2-----------|-------------------------|
G|-------------------|---------------------|-------------2--1--2-|----2---1----------------|
D|-------------------|---------------------|---------------------|------------2------0--0--|
A|-------------------|---------------------|---------------------|-------------------0--0--|
E|-------------------|---------------------|---------------------|-------------------------|

e|-------------------|---------------------|---------------------|-------------------------|
B|-------------------|---------------------|---------------------|-------------------------|
G|-9-9-9-9-\-8--8-8--|-8\-6--6-6\-4--4-----|-4-4-4-4----4--4-/-11|----11-11-/16-16-16---16-|
D|-x-x-x-x------x-x--|-x-----x-x-----x-----|-x-x-x-x----x--x-----|----x--x---x--x--x----x--|
A|-7-7-7-7-\-6--6-6--|-6\-4--4-4\-2--2-----|-2-2-2-2----2--2-/-9-|----9--9-/-14-14-14---14-|
E|-------------------|---------------------|---------------------|-------------------------|

Chorus
Sex. Drugs, and Violence.                      English, Math, and Science.
e|--------------------|-------------------------|-----------------------|-----------------------|
B|--------------------|-------------------------|-----------------------|-----------------------|
G|-9------------------|--6-6-6--8-------8-8-8---|-9---------------------|------------8----8-8-8-|
D|-9------------------|--7-7-7--9-------9-9-9---|-9---------------------|-11--11-11--9----9-9-9-|
A|-7------------------|--7-7-7--9-------9-9-9---|-7---------------------|-11--11-11--9----9-9-9-|
E|--------------------|--5-5-5--7-------7-7-7---|-----------------------|-9---9--9---7----7-7-7-|

*Then it just plays at normal speed*
Outro

e|--------------|----------------|-----------------------|-0----------------------|
B|--------------|----------------|-----------------------|-0----------------------|
G|---6-6-6-8----|-6--6-6--8------|-6--6--6--8--8--8\-----|-1----------------------|
D|---7-7-7-9----|-7--7-7--9------|-7--7--7--9--9--8-\----|-2----------------------|
A|---7-7-7-9----|-7--7-7--9------|-7--7--7--9--9--9--\---|-2---------14\----------|
E|---5-5-5-7----|-5--5-5--7------|-5--5--5--7--7--7---\--|-0----------0-----------|


************************************

| /   slide up
| \   slide down
| h   hammer-on
| p   pull-off
| ~   vibrato
| +   harmonic
| x   Mute note
| b   Bend
| pb  Pre-bend
| br  Bend release
| pbr Pre-bend release
| brb Bend release bend

************************************
 
 
Green Day - Sex Drugs And Violence :: indexed at Ultimate Guitar.
Sex Drugs And Violence tabs @ 911Tabs

About the artist behind Sex Drugs And Violence:

Green Day is an American punk trio formed in 1987.[1] The band has consisted of Billie Joe Armstrong (vocals, guitar), Mike Dirnt (bass guitar, vocals), and Tré Cool (drums, percussion) for the majority of its existence.

Green Day was originally part of the punk rock scene at 924 Gilman Street in Berkeley, California. Its early releases for independent record label Lookout! Records earned them a grassroots fanbase, some of whom felt alienated when the band signed to a major label.[2] Nevertheless, its major label debut Dookie (1994) became a breakout success and eventually sold over 10 million copies in the U.S. alone, and 15 million copies sold worldwide.[3] As a result, Green Day was widely credited, alongside fellow California punk bands The Offspring and Rancid, with reviving mainstream interest in and popularizing punk rock in the United States.[4][5] Green Day's three follow-up albums, Insomniac, Nimrod and Warning did not achieve the massive success of Dookie, but they were still successful, reaching double platinum and gold status respectively.[6] Green Day's 2004 rock opera American Idiot reignited the band's popularity with a younger generation, selling five million copies in the U.S.[7]

The band has sold over 65 million records worldwide,[8] including 22 million in the United States alone.[9] They also have three Grammy Awards, Best Alternative Album for Dookie, Best Rock Album for American Idiot, and Record of the Year for "Boulevard of Broken Dreams".

Indexed at Wikipedia.

Show us your talent, perform Sex Drugs And Violence!

Here you can post a video or audio performance. Tell me more ...
Where can we find your performance? Tell me more ...
Your comment:
Please, log in to post your performance.