Artists by letter: A B C D E F G H I J K L M N O P Q R S T U V W X Y Z 0-9

 
Green Day
Green Day                Green Day                                                                 
E||--------------------|-----------0--------|------------------|
B||--------------------|--3--------0--------|------------------|
G||--4-----------------|--2--------4--------|------------------|
D||--4--------2--------|--0--------4--------|------------------|
A||--2--------2--------|-----------2--------|------------------|
E||-----------0--------|--------------------|------------------|

Bass Enters

|-------------------------|----------0------------|------------------------|
|-------------------------|----------0------------|------------------------|
|*------------------------|----------1------------|--4----4----4--4--4--4--|
|*--6----6----6--6--6--2--|----2--2--2----2--2----|--4----4----4--4--4--4--|
|---6----6----6--6--6--2--|----2--2--2----2--2----|--2----2----2--2--2--2--|
|---4----4----4--4--4--0--|----0--0--0----0--0----|------------------------|

2x                                               
------------------------||-----------------------|----------------------|
------------------------||-----------------------|----------------------|
----4--4--4----4--4----*||*--9----9----9----9----|--7----7----7----7----|
----4--4--4----4--4----*||*--9----9----9----9----|--7----7----7----7----|
----2--2--2----2--2-----||---7----7----7----7----|--5----5----5----5----|
------------------------||-----------------------|----------------------|

-----------------------|------------------------|-----------------------|
-----------------------|------------------------|-----------------------|
--6----6----6--6----4--|----4--4----4--4--4--4--|--------------------2--|
--6----6----6--6----4--|----4--4----4--4--4--4--|--4----4----4--4----2--|
--4----4----4--4----2--|----2--2----2--2--2--2--|--4----4----4--4----0--|
-----------------------|------------------------|--2----2----2--2-------|

---------------------|---------------------0--|-------------------------|
---------------------|------------------0-----|----0--------------------|
----2--2----2--------|--1----1----1/-2--------|-------2h-1--------------|
----2--2----2--------|--2----2----------------|-------------2-----------|
----0--0----0--------|--2----2----------------|-------------2-----------|
---------------------|--0----0----------------|-------------0--0--0--0--|

----------------------|----------------------|-----------------------|
----------------------|----------------------|-----------------------|
--9----9----9----9----|--7----7----7----7----|--6----6----6--6----4--|
--9----9----9----9----|--7----7----7----7----|--6----6----6--6----4--|
--7----7----7----7----|--5----5----5----5----|--4----4----4--4----2--|
----------------------|----------------------|-----------------------|

------------------------|-----------------------|---------------------|
------------------------|-----------------------|---------------------|
----4--4----4--4--4--4--|--------------------2--|----2--2----2--------|
----4--4----4--4--4--4--|--4----4----4--4----2--|----2--2----2--------|
----2--2----2--2--2--2--|--4----4----4--4----0--|----0--0----0--------|
------------------------|--2----2----2--2-------|---------------------|

---------------------0--|-------------------------|------------------------|
------------------0-----|----0--------------------|------------------------|
--1----1----1/-2--------|-------2h-1--------------|------------------------|
--2----2----------------|-------------2-----------|--6----6----6--6--6--2--|
--2----2----------------|-------------2-----------|--6----6----6--6--6--2--|
--0----0----------------|-------------0--0--0--0--|--4----4----4--4--4--0--|

----------0------------|------------------------|-----------------------|
----------0------------|------------------------|-----------------------|
----------1------------|--4----4----4--4--4--4--|----4--4--4----4--4----|
----2--2--2----2--2----|--4----4----4--4--4--4--|----4--4--4----4--4----|
----2--2--2----2--2----|--2----2----2--2--2--2--|----2--2--2----2--2----|
----0--0--0----0--0----|------------------------|-----------------------|

------------------------|----------0------------|------------------------|
------------------------|----------0------------|------------------------|
------------------------|----------1------------|--4----4----4--4--4--4--|
--6----6----6--6--6--2--|----2--2--2----2--2----|--4----4----4--4--4--4--|
--6----6----6--6--6--2--|----2--2--2----2--2----|--2----2----2--2--2--2--|
--4----4----4--4--4--0--|----0--0--0----0--0----|------------------------|

-----------------------|------------------------|----------0------------|
-----------------------|------------------------|----------0------------|
----4--4--4----4--4----|------------------------|----------1------------|
----4--4--4----4--4----|--6----6----6--6--6--2--|----2--2--2----2--2----|
----2--2--2----2--2----|--6----6----6--6--6--2--|----2--2--2----2--2----|
-----------------------|--4----4----4--4--4--0--|----0--0--0----0--0----|

------------------------|-----------------------|------------------------|
------------------------|-----------------------|------------------------|
--4----4----4--4--4--4--|----4--4--4----4--4----|------------------------|
--4----4----4--4--4--4--|----4--4--4----4--4----|--6----6----6--6--6--2--|
--2----2----2--2--2--2--|----2--2--2----2--2----|--6----6----6--6--6--2--|
------------------------|-----------------------|--4----4----4--4--4--0--|

----------0------------|------------------------|-----------------------|
----------0------------|------------------------|-----------------------|
----------1------------|--4----4----4--4--4--4--|----4--4--4----4--4----|
----2--2--2----2--2----|--4----4----4--4--4--4--|----4--4--4----4--4----|
----2--2--2----2--2----|--2----2----2--2--2--2--|----2--2--2----2--2----|
----0--0--0----0--0----|------------------------|-----------------------|

----------------------|----------------------|-----------------------|
----------------------|----------------------|-----------------------|
--9----9----9----9----|--7----7----7----7----|--6----6----6--6----4--|
--9----9----9----9----|--7----7----7----7----|--6----6----6--6----4--|
--7----7----7----7----|--5----5----5----5----|--4----4----4--4----2--|
----------------------|----------------------|-----------------------|

------------------------|-----------------------|---------------------|
------------------------|-----------------------|---------------------|
----4--4----4--4--4--4--|--------------------2--|----2--2----2--------|
----4--4----4--4--4--4--|--4----4----4--4----2--|----2--2----2--------|
----2--2----2--2--2--2--|--4----4----4--4----0--|----0--0----0--------|
------------------------|--2----2----2--2-------|---------------------|

---------------------0--|--------------------------||----------------------|
------------------0-----|----0---------------------||----------------------|
--1----1----1/-2--------|-------2h-1--------------*||--9----9----9----9----|
--2----2----------------|-------------2-----------*||--9----9----9----9----|
--2----2----------------|-------------2------------||--7----7----7----7----|
--0----0----------------|-------------0--0--0--0---||----------------------|

----------------------|-----------------------|------------------------|
----------------------|-----------------------|------------------------|
--7----7----7----7----|--6----6----6--6----4--|----4--4----4--4--4--4--|
--7----7----7----7----|--6----6----6--6----4--|----4--4----4--4--4--4--|
--5----5----5----5----|--4----4----4--4----2--|----2--2----2--2--2--2--|
----------------------|-----------------------|------------------------|

-----------------------|---------------------|---------------------0--|
-----------------------|---------------------|------------------0-----|
--------------------2--|----2--2----2--------|--1----1----1/-2--------|
--4----4----4--4----2--|----2--2----2--------|--2----2----------------|
--4----4----4--4----0--|----0--0----0--------|--2----2----------------|
--2----2----2--2-------|---------------------|--0----0----------------|

-------------------------||-------------------------------|
----0--------------------||---12----12----12--12--12--14--|
-------2h-1--------------||*--x-----x-----x---x---x---x---|
-------------2-----------||*--9-----9-----9---9---9---11--|
-------------2-----------||-------------------------------|
-------------0--0--0--0--||-------------------------------|

------------------------|------------------------|------------------------|
----12----10----9----9--|--10----9--7----5----4--|--4--4--4----4--4--4----|
----x-----x-----x----x--|--x-----x--x----x----4--|--4--4--4----4--4--4----|
----9-----7-----6----6--|--7-----6--4----2----4--|--4--4--4----4--4--4----|
------------------------|---------------------2--|--2--2--2----2--2--2----|
------------------------|------------------------|------------------------|

------------------------|------------------------|---------------------0--|
------------------------|------------0--0--0--0--|------------------0-----|
---------------------2--|----2--2----2--2--2--2--|--1----1----1/-2--------|
--4----4----4--4--4--2--|----2--2----2--2--2--2--|--2----2----------------|
--4----4----4--4--4--0--|----0--0----0--0--0--0--|--2----2----------------|
--2----2----2--2--2-----|------------------------|--0----0----------------|

--------------------------||-------------------------|----------------------|
----0---------------------||----0--------------------|----------------------|
-------2h-1--------------*||-------2h-1--------------|--9----9----9----9----|
-------------2-----------*||-------------2-----------|--9----9----9----9----|
-------------2------------||-------------2-----------|--7----7----7----7----|
-------------0--0--0--0---||-------------0--0--0--0--|----------------------|

----------------------|-----------------------|------------------------|
----------------------|-----------------------|------------------------|
--7----7----7----7----|--6----6----6--6----4--|----4--4----4--4--4--4--|
--7----7----7----7----|--6----6----6--6----4--|----4--4----4--4--4--4--|
--5----5----5----5----|--4----4----4--4----2--|----2--2----2--2--2--2--|
----------------------|-----------------------|------------------------|

-----------------------|---------------------|---------------------0--|
-----------------------|---------------------|------------------0-----|
--------------------2--|----2--2----2--------|--1----1----1/-2--------|
--4----4----4--4----2--|----2--2----2--------|--2----2----------------|
--4----4----4--4----0--|----0--0----0--------|--2----2----------------|
--2----2----2--2-------|---------------------|--0----0----------------|

-------------------------|----------------------|----------------------|
----0--------------------|----------------------|----------------------|
-------2h-1--------------|--9----9----9----9----|--7----7----7----7----|
-------------2-----------|--9----9----9----9----|--7----7----7----7----|
-------------2-----------|--7----7----7----7----|--5----5----5----5----|
-------------0--0--0--0--|----------------------|----------------------|

-----------------------|------------------------|-----------------------|
-----------------------|------------------------|-----------------------|
--6----6----6--6----4--|----4--4----4--4--4--4--|--------------------2--|
--6----6----6--6----4--|----4--4----4--4--4--4--|--4----4----4--4----2--|
--4----4----4--4----2--|----2--2----2--2--2--2--|--4----4----4--4----0--|
-----------------------|------------------------|--2----2----2--2-------|

---------------------|---------------------0--|-------------------------|
---------------------|------------------0-----|----0--------------------|
----2--2----2--------|--1----1----1/-2--------|-------2h-1--------------|
----2--2----2--------|--2----2----------------|-------------2-----------|
----0--0----0--------|--2----2----------------|-------------2-----------|
---------------------|--0----0----------------|-------------0--0--0--0--|

------------------------|----------0------------|------------------------|
------------------------|----------0------------|------------------------|
------------------------|----------1------------|--4----4----4--4--4--4--|
--6----6----6--6--6--2--|----2--2--2----2--2----|--4----4----4--4--4--4--|
--6----6----6--6--6--2--|----2--2--2----2--2----|--2----2----2--2--2--2--|
--4----4----4--4--4--0--|----0--0--0----0--0----|------------------------|

-----------------------|------------------------|----------0------------|
-----------------------|------------------------|----------0------------|
----4--4--4----4--4----|------------------------|----------1------------|
----4--4--4----4--4----|--6----6----6--6--6--2--|----2--2--2----2--2----|
----2--2--2----2--2----|--6----6----6--6--6--2--|----2--2--2----2--2----|
-----------------------|--4----4----4--4--4--0--|----0--0--0----0--0----|

------------------------|-----------------------|------------------------|
------------------------|-----------------------|------------------------|
--4----4----4--4--4--4--|----4--4--4----4--4----|------------------------|
--4----4----4--4--4--4--|----4--4--4----4--4----|--6----6----6--6--6--2--|
--2----2----2--2--2--2--|----2--2--2----2--2----|--6----6----6--6--6--2--|
------------------------|-----------------------|--4----4----4--4--4--0--|

----------0------------|------------------------|-----------------------|
----------0------------|------------------------|-----------------------|
----------1------------|--4----4----4--4--4--4--|----4--4--4----4--4----|
----2--2--2----2--2----|--4----4----4--4--4--4--|----4--4--4----4--4----|
----2--2--2----2--2----|--2----2----2--2--2--2--|----2--2--2----2--2----|
----0--0--0----0--0----|------------------------|-----------------------|

------------------------|----------0------------|------------------------|
------------------------|----------0------------|------------------------|
------------------------|----------1------------|--4----4----4--4--4--4--|
--6----6----6--6--6--2--|----2--2--2----2--2----|--4----4----4--4--4--4--|
--6----6----6--6--6--2--|----2--2--2----2--2----|--2----2----2--2--2--2--|
--4----4----4--4--4--0--|----0--0--0----0--0----|------------------------|

-----------------------|----------------------|----------------------|
-----------------------|----------------------|----------------------|
----4--4--4----4--4----|--9----9----9----9----|--7----7----7----7----|
----4--4--4----4--4----|--9----9----9----9----|--7----7----7----7----|
----2--2--2----2--2----|--7----7----7----7----|--5----5----5----5----|
-----------------------|----------------------|----------------------|

-----------------------|------------------------|--0-----0-----------0-----|
-----------------------|------------------------|--0--0-----0-----0-----0--|
--6----6----6--6----4--|----4--4----4--4--4--4--|--2-----------2-----------|
--6----6----6--6----4--|----4--4----4--4--4--4--|--2-----------------------|
--4----4----4--4----2--|----2--2----2--2--2--2--|--0-----------------------|
-----------------------|------------------------|--------------------------|

--------0--------------|------------------||
-----0-----0-----------|------------------||
--2-----------2--------|------------------||
-----------------------|------------------||
-----------------------|------------------||
-----------------------|------------------||
 
 
Green Day - Green Day :: indexed at Ultimate Guitar.
Green Day tabs @ 911Tabs

About the artist behind Green Day:

Green Day is an American punk trio formed in 1987.[1] The band has consisted of Billie Joe Armstrong (vocals, guitar), Mike Dirnt (bass guitar, vocals), and Tré Cool (drums, percussion) for the majority of its existence.

Green Day was originally part of the punk rock scene at 924 Gilman Street in Berkeley, California. Its early releases for independent record label Lookout! Records earned them a grassroots fanbase, some of whom felt alienated when the band signed to a major label.[2] Nevertheless, its major label debut Dookie (1994) became a breakout success and eventually sold over 10 million copies in the U.S. alone, and 15 million copies sold worldwide.[3] As a result, Green Day was widely credited, alongside fellow California punk bands The Offspring and Rancid, with reviving mainstream interest in and popularizing punk rock in the United States.[4][5] Green Day's three follow-up albums, Insomniac, Nimrod and Warning did not achieve the massive success of Dookie, but they were still successful, reaching double platinum and gold status respectively.[6] Green Day's 2004 rock opera American Idiot reignited the band's popularity with a younger generation, selling five million copies in the U.S.[7]

The band has sold over 65 million records worldwide,[8] including 22 million in the United States alone.[9] They also have three Grammy Awards, Best Alternative Album for Dookie, Best Rock Album for American Idiot, and Record of the Year for "Boulevard of Broken Dreams".

Indexed at Wikipedia.

Show us your talent, perform Green Day!

Here you can post a video or audio performance. Tell me more ...
Where can we find your performance? Tell me more ...
Your comment:
Please, log in to post your performance.