Artists by letter: A B C D E F G H I J K L M N O P Q R S T U V W X Y Z 0-9

 
Milkshake
----------------------------------------------------------------------------
                             Milkshake - Goodnight Nurse
----------------------------------------------------------------------------
Tabbed by: Matthew Richards
Email: [email protected]

Tuning: Drop Db   ('b' means flat for those of you who don't know.)

Pretty sure that the tab is atleast 99% correct, maybe even 100% correct.

Feel free to leave comments and please rate my tab.

Intro (0:00 - 0:02)
eb|----|
Bb|----|
Gb|----| Play 4 Times
Db|-55-|
Ab|0---|
Db|0---|

Chorus (0:02 - 0:19)
eb|-------------|
Bb|-------------|
Gb|-------------| Play 8 Times
Db|---5---------|
Ab|-0---6-1-0-0-|
Db|-0-----1-0-0-|

Verse Part One (0:19 - 0:21)
eb|---|
Bb|---|
Gb|-8-| (let ring)
Db|-8-|
Ab|-6-|
Db|---|

Verse Part Two (0:22 - 0:36)
eb|-----------------|
Bb|-----------------|
Gb|-777-777-777-777-| Play 7 Times
Db|-777-777-777-777-|
Ab|-555-555-555-555-|
Db|-----------------|
 PM ..  ..  ..  ..

Verse Part Three (0:37 - 0:38)
eb|-------|
Bb|-------|
Gb|-77777-| Play Once
Db|-77777-|
Ab|-55555-|
Db|-------|

Pre-Chorus (0:39 - 0:56)
eb|-------------|
Bb|-------------|
Gb|-8-8--8-7--7-| Play 4 Times
Db|-8-8--8-7--7-|
Ab|-6-6--6-5--5-|
Db|-------------|

Chorus (0:57 - 1:14)
eb|-------------|
Bb|-------------|
Gb|-------------| Play 8 Times
Db|---5---------|
Ab|-0---6-1-0-0-|
Db|-0-----1-0-0-|

Bridge One (1:14 - 1:22)
eb|-----------------------------------------------------|
Bb|-----------------------------------------------------|
Gb|-----------------------------------------------------| Play Once
Db|---5-----------5-----------5-----------5-------------|
Ab|-0---6-1-0-0-0---6-1-0-0-0---6-1-0-0-0---6-1-0-0-0-0-|
Db|-0-----1-0-0-0-----1-0-0-0-----1-0-0-0-----1-0-0-0-0-|

Bridge Two (1:23 - 1:40
eb|-------------------------------------------------------------|
Bb|-------------------------------------------------------------|
Gb|-5---4-----------5---4-----------5---4-----------4-------4-4-| Play Once
Db|-5---4---1---3---5---4---1---3---5---4---1---3---4-------4-4-|
Ab|-3---2---1---3---3---2---1---3---3---2---1---3---2-------2-2-|
Db|---------1---3-----------1---3-----------1---3---------------|

Bridge Three (1:49 - 1:56)
eb|------------------------------|
Bb|------------------------------|
Gb|-8888-777777777777-8888-77777-| Play Once
Db|------------------------------|
Ab|------------------------------|
Db|------------------------------|
 PM .... ............

Chorus (1:58 - 2:15)
eb|-------------|
Bb|-------------|
Gb|-------------| Play 8 Times
Db|---5---------|
Ab|-0---6-1-0-0-|
Db|-0-----1-0-0-|

Outro Part One (2:15 - 2:20)
eb|----|
Bb|----|
Gb|----| Play 8 Times
Db|-55-|
Ab|0---|
Db|0---|

Outro Part Two (2:20 - 2:23)
eb|--------------------|
Bb|--------------------|
Gb|--------------------| Play Once
Db|------------5-------|
Ab|-0-0-0-0--0---6-1-0-|
Db|-0-0-0-0--0-----1-0-|

Thanks for using my tab. Please rate it.

============================================================================
 
 
Goodnight Nurse - Milkshake :: indexed at Ultimate Guitar.
Milkshake tabs @ 911Tabs

About the artist behind Milkshake:

Goodnight Nurse is a pop punk band based in New Zealand. The band formed in Auckland, New Zealand, in 2001,[2] originally as a trio, but later changed to a four-piece line-up which currently consists of lead vocalist Joel Little, guitarist and back up vocalist Sam McCarthy, bassist Rowan Crowe, with drummer and back up vocalist Jaden Parkes.[2] The band has released two studio albums, including Always and Never (2006) and Keep Me On Your Side (2008), both peaking at #5 in their home country.[3] Their latest single "I Need This", was released on May 5, 2008 in Australia and New Zealand. Goodnight Nurse will be supporting The Getaway Plan on their Where the City Meets the Sea Australian tour.

Indexed at Wikipedia.

Show us your talent, perform Milkshake!

Here you can post a video or audio performance. Tell me more ...
Where can we find your performance? Tell me more ...
Your comment:
Please, log in to post your performance.