Artists by letter: A B C D E F G H I J K L M N O P Q R S T U V W X Y Z 0-9

 
Were Coming Home Tab
This Song Is really easy.
Listen to the song to get the timing right.

E ------------------------------|
B ------------------------------|
G -------------------------- ---|
D 4 - 4- 4 - 4 -4 - 4 -4 -- ----|  x 15
A 2 - 2- 2 - 2 -2 - 2 -2 -- ----|
E -------------------------- ---|


E --------------------------- -------------------|
B --------------------------- -------------------|
G --------------------------  -------------------|
D 4 - 4- 4 - 4 -4 - 4 -4 ------------------------|
A 2 - 2- 2 - 2 -2 - 2 -2 -- 5-5-5-5-5-5-5--------|
E -------------------------- 3-3-3-3-3-3-3-------|

E -----------------------|
B------------------------|
G------------------------|
D------------------------|      x2
A 7-7-7-7-7-7-7----------|
E  5-5-5-5-5-5-5---------|

Chorus   same chords as second bit of verse


Inter ludey thing


E--------------------------------|
B--------------------------------|
G--------------------------------|
C  9-9-9-9  7-7-7-7 -------------|
A  7-7-7-7 5-5-5-5   7-7-7-7-----|
E--------------------   5-5-5-5--|

I f u listen to the song yo'll figure out when to repat and stuff

 
 
Rogue Traders - Were Coming Home Tab :: indexed at Ultimate Guitar.
Were Coming Home tabs @ 911Tabs
People who played Rogue Traders - Were Coming Home Tab also played these songs by Rogue Traders:
Voodoo Child Tab, I Never Liked You Tab, What Youre On Chords, Way To Go Chords, Casting Aside Chords, The Price We Pay Tab

About the artist behind Were Coming Home Tab:

Rogue Traders are an Australian/English rock band consisting of James Ash (keyboards), Danny Spencer (guitars), Cameron McGlinchey (drums) and Natalie Bassingthwaighte(lead vocals). The group's original members (James Ash and Steve Davis) met in London in 1989. Before forming Rogue Traders, Ash and Davis worked together on many projects, most notably as dance act Union State. Davis still contributes to the band and is still an active part of the songwriting process. The band's name came from the movie Rogue Trader.

The Rogue Traders are best known for their hits "Voodoo Child", "In Love Again" & "Watching You". The group's third studio album Better in the Dark was released in Australia on October 13th.

Indexed at Wikipedia.

Show us your talent, perform Were Coming Home Tab!

Here you can post a video or audio performance. Tell me more ...
Where can we find your performance? Tell me more ...
Your comment:
Please, log in to post your performance.