Artists by letter: A B C D E F G H I J K L M N O P Q R S T U V W X Y Z 0-9

 
Sand
Artist: Giungla (Emanuela Drei)
Song: Sand
Part of the song: whole song

[Intro + Verse]

e|--------------------------------------------------------------------------------------------------|
B|--5-----5-----5-----5-----4-----4-----4-----4-----9-----9-----9-----9-----4-----4-----4-----4-----|
G|-----6-----6-----6-----6-----4-----4-----4-----4-----9-----9-----9-----9-----4-----4-----4-----4--| x6
D|--------------------------------------------------------------------------------------------------|
A|--------------------------------------------------------------------------------------------------|
E|--------------------------------------------------------------------------------------------------|


[Interlude] (00:47)

e|----------------------------------|
B|-----2-----4--------5-------4-----|
G|--2-----2--------2-----2\4-----4--|  x 2
D|----------------------------------|
A|----------------------------------|
E|----------------------------------|


[Verse] (00:56)

e|--------------------------------------------------------------------------------------------|
B|--5-----5-----5-----4-----4-----4-----4-----9-----9-----9-----9-----4-----4-----4-----4-----|
G|-----6-----6-----6-----4-----4-----4-----4-----9-----9-----9-----9-----4-----4-----4-----4--| x2
D|--------------------------------------------------------------------------------------------| 
A|--------------------------------------------------------------------------------------------|
E|--------------------------------------------------------------------------------------------|


[Chorus] (01:10)

e|--------------------------------------------------|           |--------|
B|--5-----5-----5-----5-----4-----4-----4-----4-----|           |--2-----|
G|-----6-----6-----6-----6-----4-----4-----4-----4--| x2        |-----2--| x8
D|--------------------------------------------------|           |--------|
A|--------------------------------------------------|           |--------|
E|--------------------------------------------------|           |--------|


[Verse] (01:24)

e|--------------------------------------------------------------------------------------------------|
B|--5-----5-----5-----5-----4-----4-----4-----4-----9-----9-----9-----9-----2-----2-----2-----2-----|
G|-----6-----6-----6-----6-----4-----4-----4-----4-----9-----9-----9-----9-----2-----2-----2-----2--|
D|--------------------------------------------------------------------------------------------------|
A|--------------------------------------------------------------------------------------------------|
E|--------------------------------------------------------------------------------------------------|

e|--------------------------------------------------------------------------------------------------|
B|--5-----5-----5-----5-----4-----4-----4-----4-----9-----9-----9-----9-----4-----4-----4-----4-----|
G|-----6-----6-----6-----6-----4-----4-----4-----4-----9-----9-----9-----9-----4-----4-----4-----4--| x2
D|--------------------------------------------------------------------------------------------------|
A|--------------------------------------------------------------------------------------------------|
E|--------------------------------------------------------------------------------------------------|


[Interlude] (01:40)

e|----------------------------------|
B|-----2-----4--------5-------4-----|
G|--2-----2--------2-----2\4-----4--| x2
D|----------------------------------|
A|----------------------------------|
E|----------------------------------|


[Verse] (01:47)

e|--------------------------------------------------------------------------------------------|
B|--5-----5-----5-----4-----4-----4-----4-----9-----9-----9-----9-----4-----4-----4-----4-----|
G|-----6-----6-----6-----4-----4-----4-----4-----9-----9-----9-----9-----4-----4-----4-----4--| x4
D|--------------------------------------------------------------------------------------------| 
A|--------------------------------------------------------------------------------------------|
E|--------------------------------------------------------------------------------------------|


[Chorus] (02:18)

e|--------------------------------------------------------------------------------------------------
B|--2-----2-----2-----2-----4-----4-----4-----4-----5-----5-----5-----5-----4-----4-----4-----4-----
G|-----2-----2-----2-----2-----4-----4-----4-----4-----6-----6-----6-----6-----4-----4-----4-----4--
D|--------------------------------------------------------------------------------------------------
A|--------------------------------------------------------------------------------------------------
E|--------------------------------------------------------------------------------------------------

e|------------------------|
B|2-----2-----2-----2-----|
G|---2-----2-----2-----2--|
D|------------------------|
A|------------------------|
E|------------------------|


[Outro]

e|--------------------------------------------------------------------------------------------------|
B|--5-----5-----5-----5-----4-----4-----4-----4-----9-----9-----9-----9-----2-----2-----2-----2-----|
G|-----6-----6-----6-----6-----4-----4-----4-----4-----9-----9-----9-----9-----2-----2-----2-----2--|
D|--------------------------------------------------------------------------------------------------|
A|--------------------------------------------------------------------------------------------------|
E|--------------------------------------------------------------------------------------------------|



************************************

| \  Slide down

************************************
 
 
Giungla - Sand :: indexed at Ultimate Guitar.
Sand tabs @ 911Tabs
People who played Giungla - Sand also played these songs by Giungla:
Sand Tab

Quick tip, so you can enjoy Sand even more:

YourChords.com Guitar Chords and Tabs Archive is currently indexing over 240'000 songs from 21'000+ different artists. And new chords just keep on coming in, so you will surely never run out of them.

Show us your talent, perform Sand!

Here you can post a video or audio performance. Tell me more ...
Where can we find your performance? Tell me more ...
Your comment:
Please, log in to post your performance.