Artists by letter: A B C D E F G H I J K L M N O P Q R S T U V W X Y Z 0-9

 
Crazy
-----------------------------------------------------------------------------
                             CRAZY - Girlschool
-----------------------------------------------------------------------------

Tabbed by: Anne Drury
Email: [email protected]
Date: November 15, 2005

Written by: Jackie Chambers, Enid Williams
CD: "Believe"    (2004, Communique Records)

Notes:

-4/4 time -- bar lines do indicate timing
-Intro and Verses are in Eb minor, Chorus and Guitar Solo are in Eb Major
-the chord changes are shown for the verses, but the verses are actually
 carried by bass and keyboard only
-for harmonics , fret the note indicated, then play harmonic an octave 
 (12 frets) up from that note with other hand (touch harmonic with index 
 finger, pluck with pick or thumb) 
-Chord forms for intro:        E A D G B E
                         Ebm   x x 8 8 7 x 
                         Gb    x x x 6 7 6
                         Bbm   x x x 6 6 6

INTRO:

(Ebm)               (Gb)              (Db)            (Bbm)

E ---|-------------------|-----------|------------|------------|
 B ---|----------------|--------------|------------|---------|
 G ---|-------------|-----------------|------------|------------|
 D |----------------|-----------------|---------------|---------|
 A ---|-------------------|-----------------|---------------|------------|
 E ---|-------------------|-----------------|---------------|------------|

(Ebm)               (Gb)              (Db)            (Bbm)       
 
      |-------------------|--------------|------------|------------|
      |----------------|-----------|------------|---------|
      |-------------|-----------------|------------|------------|
      |----------------|-----------------|---------------|------------|
      |-------------------|-----------------|---------------|------------|
      |-------------------|-----------------|---------------|------------|



1ST VERSE:

(Ebm)               (Gb)
This is modern war, walk on eggshells
    (Db)                    (Bbm)
The cracks are showing under colour of the truth
         (Ebm)         (Gb)
Fuel the fire, fan the flame
(Db)                      (Bbm)
Silvery tongue, don't you speak in our name
        (Ebm)                 (Gb)
This is modern war, under the veil
       (Db)                      (Bbm)
Cast a chill across the sky, and twist the Lion's tail
         (Ebm)         (Gb)
Fuel the fire, fan the flame
(Bb)
Who do you think that you are kidding all the same?

CHORUS:

Eb               Bb               Fm               Ab      Fm  Ab
 E ----------------|----------------|----------------|----------------|
 B -16~--------18--|-15~--------16--|-13~------------|-\9---------11/-|
 G ----------------|----------------|----------------|----------------|
 D ----------------|----------------|----------------|----------------|
 A ----------------|----------------|----------------|----------------|
 E ----------------|----------------|----------------|----------------|
   We don't wanna  live that script again     So open up your eyes
                                                 (The world's gone crazy)

Eb               Bb               Fm               Ab      Fm  Ab
 E ----------------|----------------|----------------|----------------|
 B -16~--------18--|-15~--------16\-|-13~------------|-\9---------11/-|
 G ----------------|----------------|----------------|----------------|
 D ----------------|----------------|----------------|----------------|
 A ----------------|----------------|----------------|----------------|
 E ----------------|----------------|----------------|----------------|
The angels weep, and as we sleep, The world is going  crazy
                                                 (The world's gone crazy)

Eb               Bb               Fm               Ab      Fm  Ab
 E ----------------|----------------|----------------|----------------|
 B -16~-------/18--|-15~--------16\-|-13~------------|-\9---------11/-|
 G ----------------|----------------|----------------|----------------|
 D ----------------|----------------|----------------|----------------|
 A ----------------|----------------|----------------|----------------|
 E ----------------|----------------|----------------|----------------|
 And if       the wheels of fate have set their date,We stand and wait
                                                 (The world's gone crazy)

Eb               Bb               Fm               Ab      Fm  Ab
 E ----------------|----------------|----------------|----------------|
 B -16~--------18--|-15~--------16\-|-13~------------|-\9-------------|
 G ----------------|----------------|----------------|----------------|
 D ----------------|----------------|----------------|----------------|
 A ----------------|----------------|----------------|----------------|
 E ----------------|----------------|----------------|----------------|
 An eye for an eye,              The world is going   crazy
          and we'll all go blind,                (The world's gone crazy)



2ND VERSE:

(Ebm)            (Gb)             (Db)             (Bbm)
 E ----------------|----------------|----------------|----------------|
 B ----------------|----------------|----------------|----------------|
 G ----------------|----------------|----------------|----------------|
 D ----------|-------------|----------------|----------------|
 A ----------------|----------------|----------------|----------------|
 E ----------------|----------------|----------------|----------------|
There are smart bombs,               Sell us down the 
                but dumb men           river, say it's us versus them

(Ebm)            (Gb)             (Db)             (Bbm)
 E ----------------|----------------|----------------|----------------|
 B ----------------|----------------|----------------|----------------|
 G ----------|-------------|----------------|----------------|
 D -------------|-------------|----------------|----------------|
 A ----------------|----------------|----------------|----------------|
 E ----------------|----------------|----------------|----------------|
But we fall asleep               And share the same 
       beneath the same spangled stars,   sky,and we bear the same scars

(w/ trem.)
   (Ebm)            (Gb)             (Db)             (Bbm)
 E -5-----------|-------------|----------------|----------------|
 B -6--------------|-------------|-------------|----------------|
 G -7--------------|----------------|----------------|----------------|
 D -7--------------|----------------|----------------|----------------|
 A -5--------------|----------------|----------------|----------------|
 E ----------------|----------------|----------------|----------------| 
Somebody's                     And a million tears for 
daughter, somebody's son,                           a war that can't be won



(Ebm)            (Gb)             (Bb)
 E ----------------|----------------|----------------|----------------|
 B ----------------|----------------|----------------|----------------|
 G ----------|-------------|----------------|----------------|
 D ----------------|----------------|----------------|----------------|
 A ----------------|----------------|----------------|----------------|
 E ----------------|----------------|----------------|----------------|
Then you open the               With every death each
     floodgates by evening the score,  one of us just dies a little more



Play CHORUS

BRIDGE:

Bb
When I look to the stars and the prophets who preach
        Db
When I look to the stars and the lessons they teach
   Ab                          F
Revenge is playing God down below
      Bb
They lead us to war, but the innocent die
           Db
While our leaders get rich, and the rest of us cry
         C
And the rest of us cry
                           F
And the rest of us cry no more

GUITAR SOLO:

Eb                           Bb
 E ----------------------------|----------------------------|
 B --------------------------8-|-11^(13)r11~--------------8-|
 G -10--8~-----------10-8-10---|----------------------------|
 D ----------------------------|----------------------------|
 A ----------------------------|----------------------------|
 E ----------------------------|----------------------------|



Fm                           Ab               Fm    Ab
 E ----------------------------|----------------------------|
 B -9p8----9-------------------|----------------------------|
 G -----10---10--8-------------|----------------------------|
 D ----------------10~---------|----------------------------|
 A ----------------------11-11-|-11p10-8-10-8---------------|
 E ----------------------------|---------------6-8~=/--11---|



Eb                           Bb
 E|----------------------------|----------------------------|
 B|--------------------------8-|-11^(13)--11~-----------8-8-|
 G|-10--8~-----------10-8-10---|----------------------------|
 D|----------------------------|----------------------------|
 A|----------------------------|----------------------------|
 E|----------------------------|----------------------------|
Gt|1                                                        |
  |                                                         |
Gt|2                                                        |
 E|----------------------------|-10^(11)--10~---------11-11-|
 B|-9---8~------------9-8-9-11-|----------------------------|
 G|----------------------------|----------------------------|
 D|----------------------------|----------------------------|
 A|----------------------------|----------------------------|
 E|----------------------------|----------------------------|



Fm                           Ab               Fm    Ab
 E|----------------------------|----------------------------|
 B|-9p8----9-------------------|----------------------------|
 G|-----10---10--8-------------|----------------------------|
 D|----------------10~---------|----------------------------|
 A|----------------------11-11-|-11p10-8-10-8---------------|
 E|----------------------------|---------------6-8~=/--11---|
Gt|1                                                        |
  |                                                         |
Gt|2                                                        |
 E|-11p10-8-10-8---------------|----------------------------|
 B|---------------11-9~--------|----------------------------|
 G|------------------------8-8-|-8p7-5---7--5---------------|
 D|----------------------------|---------------5-6~=/--10---|
 A|----------------------------|----------------------------|
 E|----------------------------|----------------------------|



CHORUS:

Eb               Bb               Fm               Ab      Fm  Ab
 E|----------------|----------------|----------------|----------------|
 B|-16~--------18--|-15~--------16\-|-13~------------|----------------|
 G|----------------|----------------|----------------|----------------|
 D|----------------|----------------|----------------|----------------|
 A|----------------|----------------|----------------|----------------|
 E|----------------|----------------|----------------|----------------|
Gt|1                                                                  |
  |                                                                   |
Gt|2                                                                  |
 E|-15~--------16--|-13~--------15\-|-11~------------|----------------|
 B|----------------|----------------|----------------|----------------|
 G|----------------|----------------|----------------|----------------|
 D|----------------|----------------|----------------|----------------|
 A|----------------|----------------|----------------|----------------|
 E|----------------|----------------|----------------|----------------|
   We don't wanna  live that script again     So open up your eyes
                                                 (The world's gone crazy)

Eb               Bb               Fm               Ab      Fm  Ab
 E|----------------|----------------|----------------|----------------|
 B|-16~--------18--|-15~--------16\-|-13~------------|----------------|
 G|----------------|----------------|----------------|----------------|
 D|----------------|----------------|----------------|----------------|
 A|----------------|----------------|----------------|----------------|
 E|----------------|----------------|----------------|----------------|
Gt|1                                                                  |
  |                                                                   |
Gt|2                                                                  |
 E|-15~--------16--|-13~--------15/-|-16~------------|----------------|
 B|----------------|----------------|----------------|----------------|
 G|----------------|----------------|----------------|----------------|
 D|----------------|----------------|----------------|----------------|
 A|----------------|----------------|----------------|----------------|
 E|----------------|----------------|----------------|----------------|
The angels weep, and as we sleep, The world is going  crazy
                                                 (The world's gone crazy)

Eb               Bb               Fm               Ab      Fm  Ab
 E|----------------|----------------|----------------|----------------|
 B|-16~--------18--|-15~--------16\-|-13~------------|----------------|
 G|----------------|----------------|----------------|----------------|
 D|----------------|----------------|----------------|----------------|
 A|----------------|----------------|----------------|----------------|
 E|----------------|----------------|----------------|----------------|
Gt|1                                                                  |
  |                                                                   |
Gt|2                                                                  |
 E|-15~--------16--|-13~--------15\-|-11~------------|----------------|
 B|----------------|----------------|----------------|----------------|
 G|----------------|----------------|----------------|----------------|
 D|----------------|----------------|----------------|----------------|
 A|----------------|----------------|----------------|----------------|
 E|----------------|----------------|----------------|----------------|
 And if       the wheels of fate have set their date,We stand and wait
                                                 (The world's gone crazy)

Eb               Bb               Fm               Ab      Fm  Ab
 E|----------------|----------------|----------------|----------------|
 B|-16~--------18--|-15~--------16\-|-13~------------|----------------|
 G|----------------|----------------|----------------|----------------|
 D|----------------|----------------|----------------|----------------|
 A|----------------|----------------|----------------|----------------|
 E|----------------|----------------|----------------|----------------|
Gt|1                                                                  |
  |                                                                   |
Gt|2                                                                  |
 E|-15~--------16--|-13~--------15/-|-16~------------|----------------|
 B|----------------|----------------|----------------|----------------|
 G|----------------|----------------|----------------|----------------|
 D|----------------|----------------|----------------|----------------|
 A|----------------|----------------|----------------|----------------|
 E|----------------|----------------|----------------|----------------|
 An eye for an eye,              The world is going   crazy
          and we'll all go blind,                (The world's gone crazy)



Repeat CHORUS, adding in guitar line below:

Eb               Bb               Fm               Ab       Fm  Ab

E -15----------15-|-13----------13-|----------------|-----13---------|
 B -----16---------|-----15--16-----|-16--13------15-|-16------16-----|
 G ---------15-----|----------------|---------13-----|----------------|
 D ----------------|----------------|----------------|----------------|
 A ----------------|----------------|----------------|----------------|
 E ----------------|----------------|----------------|----------------|
   (repeat through to fade)

(fade)

-----------------------------------------------------------------------------

^...bend                                  ~...vibrato
r...release bend                          /...slide up                      
p...pulloff                               \...slide down                    
..harmonic                              =...hold note (tie)

(This file is the transcriber's own work and represents their 
interpretation of the song.) 
 
 
Girlschool - Crazy :: indexed at Ultimate Guitar.
Crazy tabs @ 911Tabs

About the artist behind Crazy:

Girlschool are a long-running English all-female heavy metal band originating out of the New Wave of British Heavy Metal.

Though enjoying little commercial success beyond the early 1980s, they maintain a worldwide cult following and were inspirational for many succeeding female bands.[citation needed]

Indexed at Wikipedia.

Show us your talent, perform Crazy!

Here you can post a video or audio performance. Tell me more ...
Where can we find your performance? Tell me more ...
Your comment:
Please, log in to post your performance.