Artists by letter: A B C D E F G H I J K L M N O P Q R S T U V W X Y Z 0-9

 
Foxglove Tab
#----------------------------------PLEASE NOTE---------------------------------#
#This file is the author's own work and represents their interpretation of the #
#song. You may only use this file for private study, scholarship, or research. #
#------------------------------------------------------------------------------##
[two versions]
From: [email protected] (KeithR5165)

                                    Foxglove

By Bruce Cockburn
From the album 'Nightvision'
Open C tuning (CGCGCE, low to high)
Capo 2


------------|--------------||---8-----0-----8-----0--|
------------|--------------||------7-----0-----7-----|
------------|--------------||*-----------------------|
---0-----0--|-----0-----0--||*--------0-----------0--|
------------|--------------||------------------------|
0-----0-----|--0-----0-----||---0-----------0--------|

5-----5--------0--------|--8-----0-----8-----0-----|
---5-----7-----------0--|-----7-----0-----7-----0--|
------------------------|--------------------------|
------5-----------0-----|--------0-----------0-----|
------------------------|--------------------------|
5-----------0-----------|--0-----------0-----------|

5-6p5-----5--------0-------|-----------------2--------|
-h-----5-----7-------------|--------2-----------------|
-------------------------0h|--2--2-----2-----------2--|
----------5-----------0----|--------2-----------2-----|
---------------------------|--------------------------|
5---------------0----------|--2-----------2-----------|

3p2-------------2-----|
-----4-----2h4-----4--|
--------2-------------|
-----2----------2-----|
----------------------|
2----------2----------|

--------0--------------|
-/7-----------7--------|
--------------------0--|
-----0-----------0-----|
-----------------------|
--0--------0-----------|


-----------------||
-7-----------0---||
----------------*||
----0-----0-----*||
-----------------||
-0-----0---------||


==========================================================================
======
==         Created with the a shareware version of the BUCKET 'O TAB
   ==
==                  tablature creation software for Windows
   ==
==                           For more information:
   ==
==                          email: [email protected]
   ==
==      US Mail: The Bucket, 3176-B5 Summit Square Dr., Oakton, VA 22124
   ==
==========================================================================
======


From: "Andrusiak, Martin @EAG" 
Subject: Bruce Cockburn TAB
Date: Mon, 18 Dec 95 20:45:00 CST


Foxglove - Bruce Cockburn, Open C tuning (CGCGCE), capo II
 --------

Here's a pretty little ditty from the True North album 'Nightvision'.
FYI, 'The Blues got the World...' (by the balls) on the same album is also
in open C (capo V).  Maybe I'll get energetic and tab it too.  Maybe not.

Thanks to [email protected] for getting me started with the first section
and (more importantly) finding the right tuning.


  Intro                                Section I
 |-----------------|-----------------||-8---0---8---0---|-5---5-----0-----|
 |-----------------|-----------------||---7---0---7---0-|---5---7-------0-|
 |-----------------|-----------------||*----------------|-----------------|
 |-----0-------0---|-----0-------0---||*----0-------0---|-----5-------0---|
 |-----------------|-----------------||-----------------|-----------------|
 |-0-------0-------|-0-------0-------||-0-------0-------|-5-------0-------|
   |   |   |   |     |   |   |   |      |   |   |   |     |   |   |   |

                      hp
 |-8---0---8---0---|-565--5-----0-----|-----------2-----|-3p2---------2---|
 |---7---0---7---0-|----5---7-------0-|-----2-----------|-----4---2h4---4-|
 |-----------------|------------------|---2---2-------2-|-------2---------|
 |-----0-------0---|------5-------0---|-----2-------2---|-----2-------2---|
 |-----------------|------------------|-----------------|-----------------|
 |-0-------0-------|-5--------0-------|-2-------2-------|-2-------2-------|
   |   |   |   |     |    |   |   |     |   |   |   |     |   |   |   |


  /---------- 1st Ending -----------  /---------- 2nd Ending -----------

 |-------0---------|-----------------||-------0-----010-|-0---------------|
 |s7---------7-----|-7-------------0-||s7-------------2-|-----------------|
 |---------------0-|----------------*||-----------0-----|-----------------|
 |-----0-------0---|-----0-------0--*||-----0-------0---|-----0-------0---|
 |-----------------|-----------------||-----------------|-----------------|
 |-0-------0-------|-0-------0-------||-0-------0-------|-0-------0-------|
   |   |   |   |     |   |   |   |      |   |   |   |     |   |   |   |


  Section II
 |-0-----0-----0---|---0-----0-----0-|-----0-----0-----|-0-----0-----0---|
 |---0-----0-----0-|-----0-----0-----|-0-----0-----0---|---0-----0-----0-|
 |-----7-----7-----|-7-----7-----7---|---5-----5-----5-|-----5-----5-----|
 |-----7-------7---|-----7-------7---|-----5-------5---|-----5-------5---|
 |-5-------5-------|-5-------5-------|-3-------3-------|-3-------3-------|
 |-----------------|-----------------|-----------------|-----------------|
   |   |   |   |     |   |   |   |     |   |   |   |     |   |   |   |


                                                        Repeat this meas.
 |---0-----0-----0-|-----0-----0-----|-1p0-------------|-----0-------0---|
 |-----0-----0-----|-0-----0-----0---|-----2p0------pp-|-----0-------0---|
 |-4-----4-----4---|---4-----4-----4-|-----0---2p0-420-|-----0-----0-0---|
 |-----4-------4---|-----4-------4---|-----------------|-0---0-----0-0---|
 |-2-------2-------|-2-------2-------|-0-------0-------|-----------------|
 |-----------------|-----------------|-----------------|-0-------0-------|
   |   |   |   |     |   |   |   |     |   |   |   |     |   |   |   |


  Section III
||-----3---5---3---|-8---5---0-------|-----3---5---0---|--pp-------------||
||-2s----0---4---0-|---7---0---------|-2s----0---4---0-|-420-----0-------||
||*----------------|-----------------|-----------------|-----2p0--------*||
||*----0-------0---|-----0-------0---|-----0-------0---|-----0-------0--*||
||-----------------|-----------------|-----------------|-----------------||
||-0-------0-------|-0-------0-------|-0-------0-------|-0-------0-------||
   |   |   |   |     |   |   |   |     |   |   |   |     |   |   |   |


  Section IV

|-12p0--10p0--8p0--7p0--|-5p0--3p0--0------|-1p0---------0--|-5-------5-----|

|-----0-----0----0----0-|----0----0--------|-----2---2h2----|---------------|

|-----------------------|----------------3-|-------3--------|-------------5-|

|-------0----------0----|------0-------0---|-----0-------0--|----5------5---|

|-----------------------|------------------|----------------|---------------|

|-0-----------0---------|-0---------0------|-0-------0------|-5-----5-------|
   |     |     |    |      |    |    |  |     |   |   |   |    |  |  |   |

 |-6p5---------5---|---0-------------|---------------7-|-------10--------|
 |-----7---5h7---5-|-7-----7---------|-------7---------|---------------0-|
 |-------5---------|-----------------|-7-7-------7-----|---7-------7-----|
 |-----5-------5---|-----0-------0---|-----7-------7---|-----7-------7---|
 |-----------------|-----------------|-0-------0-------|-0-------0-------|
 |-5-------5-------|-0-------0-------|-----------------|-----------------|
   |   |   |   |     |   |   |   |     |   |   |   |     |   |   |   |


  Repeat Section I  with 2nd  ending
  Repeat Section II with this ending:

 |-1p0-------------|-----12----------||
 |-----2p0------pp-|---------12------||
 |-----0---2p0-420-|-----12----------||
 |-----------------|-0-------12------||
 |-0-------0-------|-----------------||
 |-----------------|-0---------------||
   |   |   |   |     |   |   |   |
                        ______/
                        harmonics

 
 
Bruce Cockburn - Foxglove Tab :: indexed at Ultimate Guitar.
Foxglove tabs @ 911Tabs

About the artist behind Foxglove Tab:

Bruce Douglas Cockburn, OC (pronounced /ˈkoʊbɚn/; phonetically: "co-burn") (born May 27, 1945)[1] is a Canadian folk/rock guitarist and singer-songwriter. He has recorded an immense volume of work, his 29th album being released in summer 2006, and has written songs in styles ranging from folk to jazz-influenced rock to rock and roll.

Indexed at Wikipedia.

Show us your talent, perform Foxglove Tab!

Here you can post a video or audio performance. Tell me more ...
Where can we find your performance? Tell me more ...
Your comment:
Please, log in to post your performance.