Artists by letter: A B C D E F G H I J K L M N O P Q R S T U V W X Y Z 0-9

 
Flight 911
Band:  Gang Green
Album: Older Budweiser
Song:  Flight 911

Copyright (c)  (Roadrunner) (1989)
Version 1.0 - (01/05/05)




.  - palm mute           /  - slide up to
\  - slide down to       ~  - vibrato
h  - hammer on           b  - Bend
p  - pull off            Suffixes for bend
t  - tap                 f  - full bend    h - half bend
ph - pinched harmonic    q  - quarter bend t - tap bend
*  - see comment         ^  - Hold bend    r release bend
x  - Stuccatto           ~  - vibrato bend
,  - slight palm mute    () - ghost note, sustained note
"  - tremolo note        <> - Trill

Tunning E A D G B E
 

 Drum and bass fade in.

   Slow Pick scrape
E--------------------|
B---\--\-------------|
G----\--\------------|
D-----\--\-----------|
A------\--\----------|
E--------------------|

 Intro

 Both guitars
E----------------------------------------|
B----------------------------------------|
G----------------------------------------|
D-7-----7-/9-----9-/10----10/12------12--|
A-5--7--5-/7--9--7-/8--10-8-/10--12--10--|
E----5--------7--------8---------10------|

  Guitar 1
E[-------------------------------------------------------------------|
B[-------------------------------------------------------------------|
G[2---------------------------------2--------------------------------|
D[2---------------2-----------------2---------------2----------------|
A[0---------------0-----------------0---------------0----------------|
E[-------------------------------------------------------------------|
 [Guitar 2
 [[------------------------------PM---------------------------------]
E[-------------------------------------------------------------------|
B[-------------------------------------------------------------------|
G[-------------------------------------------------------------------|
D[-------------------------------------------------------------------|
A[0-0-0-0-0-0-0-0-0-0-0-0-0-0-0-0-0-0-0-0-0-0-0-0-0-0-0-0-0-0-0-0-0-0|
E[-------------------------------------------------------------------|

 Rpt 3 X

 Both guitars
E----------------------------------------|
B----------------------------------------|
G----------------------------------------|
D-7-----7-/9-----9-/10----10/12------12--|
A-5--7--5-/7--9--7-/8--10-8-/10--12--10--|
E----5--------7--------8---------10------|

 Verse

  Guitar 1
                          [----------PM-----------]  h
E[------------------------------------------------------------|
B[------------------------------------------------------------|
G[------------------------------------------------------------|
D[-------------4----(4)----2-2-2-2-2-2-2-2-2-2-2-2------------|
A[-2----(2)----2----(2)----3-3-3-3-3-3-3-3-3-3-3-3-2-3p2-0----|
E[-0----(0)------------------------------------------------3p-|
 [
 [Guitar 2                                           h
E[------------------------------------------------------------|
B[------------------------------------------------------------|
G[-------------------------------------------------4-5p4p2p0--|
D[------------------------------------------------------------|
A[------------------------------------------------------------|
E[------------------------------------------------------------|

 Rpt 3 X

                         [---------------PM-------------]  
E---------------------------------------------------------|
B---------------------------------------------------------|
G---------------------------------------------------------|
D-------------4----(4)----2-2-2-2-2-2-2-2-2-2-2-2-2-2-2-2-|
A-2----(2)----2----(2)----3-3-3-3-3-3-3-3-3-3-3-3-3-3-3-3-|
E-0----(0)------------------------------------------------|

 Rpt Intro
 Rpt Verse

 Mid section

  Guitar 1
E[-------------------------------------------------------------------|
B[-------------------------------------------------------------------|
G[-------------------------------------------------------------------|
D[---------------4-/7-/9--2--5-/7-/9----------------(9)--------------|
A[-2-----(2)-----2-/5-/7--0--3-/5-/7----------------(7)--------------|
E[-0-----(0)---------------------------------------------------------|
 [Guitar 2
 [                                [--------------PM-------------]
E[-------------------------------------------------------------------|
B[-------------------------------------------------------------------|
G[-------------------------------------------------------------------|
D[-9-----(9)-----4-/7-/9--2--5-/7------------------------------------|
A[-7-----(7)-----2-/5-/7--0--3-/5--7-7-7-7-7-7-7-7-7-7-7-7-7-7-7-----|
E[---------------------------------0-0-0-0-0-0-0-0-0-0-0-0-0-0-0-----|

 Riff A

  Guitar 1
E[-----------------------------------------------------|
B[-----------------------------------------------------|
G[-----------------------------------------------------|
D[-4-/7-/9--2--5-/7-/9-------------(9)-----------------|
A[-2-/5-/7--0--3-/5-/7-------------(7)-----------------|
E[-----------------------------------------------------|
 [Guitar 2
 [                  [--------------PM-------------]
E[-----------------------------------------------------|
B[-----------------------------------------------------|
G[-----------------------------------------------------|
D[-4-/7-/9--2--5-/7------------------------------------|
A[-2-/5-/7--0--3-/5--7-7-7-7-7-7-7-7-7-7-7-7-7-7-7-----|
E[-------------------0-0-0-0-0-0-0-0-0-0-0-0-0-0-0-----|

                                               Rpt 2 X

E---------------------|
B---------------------|
G---------------------|
D-4-/7-/9----2--5---/-|
A-2-/5-/7----0--3---/-|
E---------------------|

E----------------------------------------|
B----------------------------------------|
G----------------------------------------|
D-7-----7-/9-----9-/10----10/12------12--|
A-5--7--5-/7--9--7-/8--10-8-/10--12--10--|
E----5--------7--------8---------10------|

  Guitar 1
E[-------------------------------|
B[-------------------------------|
G[-------------------------------|
D[-9-------------(9)-------------|
A[-7-------------(7)-------------|
E[-------------------------------|
 [ Guitar 2
 [[--------------PM-------------]
E[-------------------------------|
B[-------------------------------|
G[-------------------------------|
D[-------------------------------|
A[-7-7-7-7-7-7-7-7-7-7-7-7-7-7-7-|
E[-0-0-0-0-0-0-0-0-0-0-0-0-0-0-0-|

 Rpt Riff A

E---------------------|
B---------------------|
G---------------------|
D-4-/7-/9----2--5---/-|
A-2-/5-/7----0--3---/-|
E---------------------|

E----------------------------------------|
B----------------------------------------|
G----------------------------------------|
D-7-----7-/9-----9-/10----10/12------12--|
A-5--7--5-/7--9--7-/8--10-8-/10--12--10--|
E----5--------7--------8---------10------|

 Rpt Verse
 Rpt mid section
 Rpt Intro

 Ending

E----|
B----|
G----|
D-2--|
A-0--|
E----|



END
 
 
Gang Green - Flight 911 :: indexed at Ultimate Guitar.
Flight 911 tabs @ 911Tabs

About the artist behind Flight 911:

Gang Green is a hardcore punk band originally from Braintree, Massachusetts. The first incarnation of the band consisted of 15 year olds Chris Doherty, Mike Dean, and Bill Manley and contributed seven tracks to the This Is Boston, Not L.A. compilation in 1982.

That same year the group disbanded and lead singer Chris Doherty joined the band Jerry's Kids for their album Is This My World?[1]

Indexed at Wikipedia.

Show us your talent, perform Flight 911!

Here you can post a video or audio performance. Tell me more ...
Where can we find your performance? Tell me more ...
Your comment:
Please, log in to post your performance.