Artists by letter: A B C D E F G H I J K L M N O P Q R S T U V W X Y Z 0-9

 
Remember You
-------------------------------------------------------------------------------
                             Remember You - G-Eazy
-------------------------------------------------------------------------------
Tabbed by:Mike R
E-mail:

Tuning:Standard 

e|---------------------------------------------------------------------------|
B|---------------------------------------------------------------------------|
G|---7---7h9p7---7-2--------12----12h14p12----12--14-------------------------|
D|---------------------------------------------------------------------------|   
A|---------------------------------------------------------------------------|
E|--7--7------7----2------12---12----------12-----14-------------------------|(x2)


This plays through the hook and the verses 
e|---------------------------------------------------------------------------|
B|---------------------------------------------------------------------------|
G|----7----7-------2---2--------12-----12--------14----14--------------------|
D|---------------------------------------------------------------------------|
A|---------------------------------------------------------------------------|
E|--7----7-------2---2-------12-----12--------14----14-----------------------|



************************************

| h  Hammer-on
| p  Pull-off

************************************
 
 
G-eazy - Remember You :: indexed at Ultimate Guitar.
Remember You tabs @ 911Tabs
People who played G-eazy - Remember You also played these songs by G-eazy:
Runaround Sue Chords, Marilyn Tab, Marilyn Chords, Remember You Tab, Lady Killers Chords, Marilyn Chords

Quick tip, so you can enjoy Remember You even more:

After the registration (which takes just 10 seconds, remember?) you will be able to use your profile - your very own piece of YourChords.com.

Show us your talent, perform Remember You!

Here you can post a video or audio performance. Tell me more ...
Where can we find your performance? Tell me more ...
Your comment:
Please, log in to post your performance.