Artists by letter: A B C D E F G H I J K L M N O P Q R S T U V W X Y Z 0-9

 
It Ends
It Ends
Faber Drive

Intro:

E|-----------------------------|
B|------x------------x---------|
G|-----------------------------|
D|----2----2-------2---2-------|   x2
A|--4------------x-------------|
E|-----------------------------|

Verse 1:

E|-----------------------------|
B|--------x------------x-------|
G|-----------------------------|
D|-----2-----2------2-----2----|   x4
A|--4------------x-------------|
E|-----------------------------|

So clear silver moon
Wind moves through my room
Memories of Saturday
Slight turn of the head
Eyes down when she said
She's goin' away
        F#
Goin' away
  A
I need to know this

Chorus:

B               C#m
  Am I the fool
A             E
  Am I a victim
B                 C#m
  I'd rather know
A                E
  You'd rather kiss him
      B
  Goodnight
     C#m        A      E
  Tonight I'm blinded
     B
  I tried
     C#m
  I tried
     A (let it ring)
  Is this the way
  Is this the way it ends

Verse 2:

E|-----------------------------|
B|--------x------------x-------|
G|-----------------------------|
D|-----2-----2------2-----2----|   x6
A|--4------------x-------------|
E|-----------------------------|

Guitar 2:

E|------4---------4---------4---7-5-4-5-4------|
B|--4-5---5---4-5---4---4-5---5----------------|
G|---------------------------------------------|
D|---------------------------------------------|   x2
A|---------------------------------------------|
E|---------------------------------------------|

Dark echoes inside
Can't sleep through the night
All the words I heard you say
(Memories of Saturday)
Fade over the yard
Lay under the stars
Stuck down in this place
             F#
Hands on my face
  A
I need to know this

Chorus:

B               C#m
  Am I the fool
A             E
  Am I a victim
B                 C#m
  I'd rather know
A                E
  You'd rather kiss him
      B
  Goodnight
     C#m        A      E
  Tonight I'm blinded
     B
  I tried
     C#m
  I tried
     A (let it ring)
  Is this the way
              A
  Is this the way it ends

Bridge:

C#m
  Get up and chase the vision
                                 A
  Stand up or watch the world go by
 B
  Ahh, Ahh
C#m
  You've found to feel the reason
                                 A
  Black clouds are filling up my sky
 B          F#
  Ahh, Ahh, Yeah

E|-------------------------------------------------------x------|
B|------4------5------2------x------4------5------2------x------|
G|-------------------------------------------------------1------|
D|----4------6------2------2------4------6------2--------2------|
A|--2------4------x------2------2------4------x----------2------|
E|-------------------------------------------------------x------|

Am I the fool
Am I a victim
I'd rather know
You'd rather kiss him

B               C#m
  Am I the fool
A             E
  Am I a victim
B                 C#m
  I'd rather know
A                E
  You'd rather kiss him
      B
  Goodnight
     C#m        A      E
  Tonight I'm blinded
     B
  I tried
     C#m
  I tried
     A 
  Is this the way
     A
  Is this the way it ends
B               C#m
  Am I the fool
A             E
  Am I a victim
B                 C#m
  I'd rather know
A                E
  You'd rather kiss him
      B
  Goodnight
     C#m        A      E
  Tonight I'm blinded
     B
  I tried
     C#m
  I tried
     A (let it ring)
  Is this the way it ends

E|-----------------x------|
B|------4----------2------|
G|-------------4---2------|
D|----6------4-----2------|
A|--4------2-------x------|
E|-----------------x------|

 
 
Faber Drive - It Ends :: indexed at Ultimate Guitar.
It Ends tabs @ 911Tabs

About the artist behind It Ends:

Faber Drive is a Pop Punk band from Mission, British Columbia, Canada. They are known for touring with bands such as Hedley,Marianas Trench, and Simple Plan. They have gained a huge amount of popularity in many parts of Canada.

Already well-known for a local fan base, Faber Drive released a limited edition three-song EP under the band name Faber. Due to legal issues, the band changed their name to Faber Drive.[citation needed]

Their debut album, Seven Second Surgery, was released on May 1, 2007 under 604 Records.

Discovered by Nickelback's Chad Kroeger and signed to his 604 Records Label[1]

The second single from Seven Second Surgery is "Tongue Tied".

The third single "When I'm With You" was previewed a month before it was released on Canadian gossip website isthishappening.com.

Faber Drive's Second Chance won a 2008 Canadian Radio Music Award for Best New Hot AC Band of The Year.[2]

Indexed at Wikipedia.

Show us your talent, perform It Ends!

Here you can post a video or audio performance. Tell me more ...
Where can we find your performance? Tell me more ...
Your comment:
Please, log in to post your performance.