Artists by letter: A B C D E F G H I J K L M N O P Q R S T U V W X Y Z 0-9

Breakfast At Sweethearts (ver 2) - Cold Chisel


 
Breakfast At Sweethearts
For the intro it goes "Intro 1" then to "Intro 2" then back to "Intro 1" and then 
"Intro 2" TWICE! Listen to the song to get it right. 


Intro 1: Am, Em X2
Intro 2: C, Dm, F, G x1

Am
Campbell lane
Em
Through the window, curtain rain
Am
Long night gone, yellow day
Em
Speed shivers melt away

C           Dm
Six o'clock I'm goin down
F                    G
Coffee's hot and the toast is brown
C                   Dm
Hey streetsweeper, clear my way
F                     G
Sweethearts breakfast is the best in town   
Am         Em
Whoa......Breakfast at sweetheats

Am
Hey, Anne-Maria
Em
It's always good to see her
Am
She don't smile or flirt
Em
She just wears that mini-skirt
Am
Drunks come in
Em
Paper bag, Brandivino
Am
Dreams fly away
Em
As she pulls another cappucino

C           Dm
Six o'clock I'm goin down
F                    G
Coffee's hot and the toast is brown
C                   Dm
Hey streetsweeper, clear my way
F                     G
Sweethearts breakfast is the best in town 
Am         Em
Whoa......Breakfast at sweetheats

SOLO:
e|----------------------------8-------------------------------------------------------|
B|------------------------8--------------10p8-----8----8----8---------8---------------|
G|-10^^----------------------------------------------------------9--------------------|
D|------------------------------------------------------------------------------------|
A|------------------------------------------------------------------------------------|
E|------------------------------------------------------------------------------------|


e|------------------------------------------------------------------------------------|
B|---10------10--------10---10--10--10\--------10s13----10-13--15^^---13--15----------|
G|-----------------------------------------------------------------------------14~----|
D|--------7-------7-----7----7---7---7\-----------------------------------------------|
A|------------------------------------------------------------------------------------|
E|------------------------------------------------------------------------------------|


Break: Am, Em.


C           Dm
Six o'clock I'm goin down
F                    G
Coffee's hot and the toast is brown
C                   Dm
Hey streetsweeper, clear my way
F                     G
Sweethearts breakfast is the best in town  


Outro: Am, Em.
 
 
Cold Chisel - Breakfast At Sweethearts :: indexed at Ultimate Guitar.
Breakfast At Sweethearts tabs @ 911Tabs
People who played Cold Chisel - Breakfast At Sweethearts also played these songs by Cold Chisel:
Forever Now Tab, When The War Is Over Tab, My Baby Tab, Working Class Man Chords, Bow River Chords, Bow River Chords

About the artist behind Breakfast At Sweethearts:

Cold Chisel are a rock band from Adelaide, Australia. They are regarded as the canonical example of Australian pub rock, with a string of hits throughout the 1970s and 1980s, and they are acknowledged as one of the most popular and successful Australian groups of the period, although this success and acclaim was almost completely restricted to Australia and New Zealand.

Indexed at Wikipedia.

Show us your talent, perform Breakfast At Sweethearts!

Here you can post a video or audio performance. Tell me more ...
Where can we find your performance? Tell me more ...
Your comment:
Please, log in to post your performance.