Artists by letter: A B C D E F G H I J K L M N O P Q R S T U V W X Y Z 0-9

 

Quien Comparte Tu Silencio
INTRO (Guitarra 1)
e|-0-0-0--0---0-0-0--0---1-1-1--1--1-1-1--3--3-3-3-3-|
B|-3-3-3--1---3-3-3--1---1-1-1--1--1-1-1--3--3-3-3-3-|
G|-0-0-0--0---0-0-0--0---2-2-2--2--2-2-2--0--0-0-0-0-|X2
D|-2-2-2--2---2-2-2--2---3-3-3--3--3-3-3--0--0-0-0-0-|
A|-3-3-3--3---2-2-2--2---3-3-3--3--3-3-3--2--2-2-2-2-|
E|-x-x-x--X---0-0-0--0---1-1-1--1--1-1-1--3--3-3-3-3-|

(Guitarra 2) X1
e|-------------------------------------3-----------------3---------------|
B|------------------------5--------------6-5-6-5--5/7-5----6-5-6-5--5/7-5|
G|-0--5~--0--5~---------5~---5----4/5~-----------------------------------|
D|---------------5~--5~---------5----------------------------------------|
A|-----------------------------------------------------------------------|
E|-----------------------------------------------------------------------|

VERSO (Guitarra 1) "Decidiste encontrar otro camino..."
e|-0-0-0-0--0---0-0-0-0--0---1-1-1-1--1-1-1--3--3-3-3-3-|   e|-X-X-X-X-|
B|-3-3-3-3--1---3-3-3-3--1---1-1-1-1--1-1-1--3--3-3-3-3-|   B|-X-X-X-X-|
G|-0-0-0-0--0---0-0-0-0--0---2-2-2-2--2-2-2--0--0-0-0-0-|X2 G|-X-X-X-X-|X1
D|-2-2-2-2--2---2-2-2-2--2---3-3-3-3--3-3-3--0--0-0-0-0-|   D|-X-X-X-X-|
A|-3-3-3-3--3---2-2-2-2--2---3-3-3-3--3-3-3--2--2-2-2-2-|   A|-X-X-X-X-|
E|-x-x-x-x--X---0-0-0-0--0---1-1-1-1--1-1-1--3--3-3-3-3-|   E|-X-X-X-X-|

(Guitarra 2) "He intentado sofocar mis sentimientos..."
e|-8~-----10~----8---10--8~-----3---------|
B|----8~-----------8--------------6-5-6-5-|
G|----------------------------------------|X1
D|----------------------------------------|
A|----------------------------------------|
E|----------------------------------------|

CORO (Guitarra 1) "Oh Oh" Cuantas veces te he llorado..."
e|-------------------------------------------------------|
B|-------------------------------------------------------|
G|-5--5-5-5---4--4-4-4-----------------------------------|X2
D|-5--5-5-5---5--5-5-5---3--3-3-3---7--7-7-7---5-5-5-5-5-|
A|-3--3-3-3---2--2-2-2---3--3-3-3---7--7-7-7---5-5-5-5-5-|
E|-----------------------1--1-1-1---5--5-5-5---3-3-3-3-3-|

(Guitarra 2)
e|----------------------------------------------|
B|----------------------------------------------|
G|-5---/9-5----4---/9-4----5---/9-5----5---/9-7-|X2
D|-X---/X-X----X---/X-X----X---/X-X----X---/X-X-|
A|-3---/7-3----2---/7-2----3---/7-3----3---/7-5-|
E|----------------------------------------------|

(Guitarra 1)
e|-0-0-0-0--0---0-0-0-0--0---1-1-1-1--1-1-1--3--3-3-3-3-|
B|-3-3-3-3--1---3-3-3-3--1---1-1-1-1--1-1-1--3--3-3-3-3-|
G|-0-0-0-0--0---0-0-0-0--0---2-2-2-2--2-2-2--0--0-0-0-0-|X1
D|-2-2-2-2--2---2-2-2-2--2---3-3-3-3--3-3-3--0--0-0-0-0-|
A|-3-3-3-3--3---2-2-2-2--2---3-3-3-3--3-3-3--2--2-2-2-2-|
E|-x-x-x-x--X---0-0-0-0--0---1-1-1-1--1-1-1--3--3-3-3-3-|

(Guitarra 2)
e|--------------------------------------------------------|
B|--------------------------------------------------------|
G|---------------5------------------------10/9------------|X1
D|-----------5-7---7-----------------9/10------10/12--10~-|
A|----5/-7-5-----------10------8/10-----------------------|
E|-8-----------------7----7/8-----------------------------|

VERSO 2 (Guitarra 1) "He perdido toda fuerza y sentido..."
e|-0-0-0-0--0---0-0-0-0--0---1-1-1-1--1-1-1--3--3-3-3-3-|
B|-3-3-3-3--1---3-3-3-3--1---1-1-1-1--1-1-1--3--3-3-3-3-|
G|-0-0-0-0--0---0-0-0-0--0---2-2-2-2--2-2-2--0--0-0-0-0-|X2
D|-2-2-2-2--2---2-2-2-2--2---3-3-3-3--3-3-3--0--0-0-0-0-|
A|-3-3-3-3--3---2-2-2-2--2---3-3-3-3--3-3-3--2--2-2-2-2-|
E|-x-x-x-x--X---0-0-0-0--0---1-1-1-1--1-1-1--3--3-3-3-3-|

(Guitarra 2) "Sueño y rezo encontrar este silencio..."
e|-8~-----10~----8---10~----8----------3-----------|
B|----8~-----------8-----------8~--------6-5-6-5---|
G|-----------------------------------------------5-|X1
D|-------------------------------------------------|
A|-------------------------------------------------|
E|-------------------------------------------------|

¡Se Repite!
>*(CORO)*< (Guitarra 1 y 2)

INTERMEDIO (Guitarra 1) "LLevame contigo hasta el final..."
e|-----------------------------------------|
B|-----------------------------------------|
G|-----------------------------------------|X2
D|-----------------------------------------|
A|-3--3-3-3-3-3-3-3-3---5--5-5-5-5-5-5-5-5-|
E|-1--1-1-1-1-1-1-1-1---3--3-3-3-3-3-3-3-3-|
 pm   . . . . . . . .      . . . . . . . .

(Guitarra 1)
e|---------------------------------------|
B|---------------------------------------|
G|---------------------------------------|X2
D|---------------------------------------|
A|-3-3-3-3-3-3-3-3-3---5-5-5-5-5-5-5-5-5-|
E|-1-1-1-1-1-1-1-1-1---3-3-3-3-3-3-3-3-3-|
 pm. . . . . . . . .   . . . . . . . . .

PRE-CORO (Guitarra 1)"Oh Oh" Cuantas veces te he llorado.."
e|-0--0---3-3---3--1---0-0-0--3-|
B|-1--1---0----0---1---1-1-1--3-|
G|-0--0---0--------2---2-2-2--0-|X1
D|-2--2---2--------3---2-2-2--0-|
A|-3--3---2--------3----------2-|
E|-----------------1----------3-|

¡Se Repite!
>*(CORO)*< ¡¡¡Solo La Guitarra 1!!!

(Guitarra 2) ¡Hace esto!
e|-12~--12/10/8~--7---12~--12-10-----------15~----10-12-----10-12--15~---
B|-------------------------------13-12-13------12-------13~-----------12~
G|-----------------------------------------------------------------------
D|-----------------------------------------------------------------------
A|-----------------------------------------------------------------------
E|-----------------------------------------------------------------------

e|-10-12------12/--10------------|
B|-------13~-----------12~-/-13~-|
G|-------------------------------|1X
D|-------------------------------|
A|-------------------------------|
E|-------------------------------|

(Guitarra 1)
e|----|
B|----|
G|-5~-|
D|-5~-|
A|-3~-|
E|----|

 
 
Delux - Quien Comparte Tu Silencio :: indexed at Ultimate Guitar.
Quien Comparte Tu Silencio tabs @ 911Tabs
People who played Delux - Quien Comparte Tu Silencio also played these songs by Delux:
De Mi Enamorate Chords, Dime Tab, Infatuacion Chords, Quien Comparte Tu Silencio Chords, Si Tu Chords, Dime Chords

About the artist behind Quien Comparte Tu Silencio:

Be Bop Deluxe were an English progressive rock band who achieved critical acclaim and moderate commercial success during the mid to late 1970s.

Indexed at Wikipedia.

Show us your talent, perform Quien Comparte Tu Silencio!

Here you can post a video or audio performance. Tell me more ...
Where can we find your performance? Tell me more ...
Your comment:
Please, log in to post your performance.