Artists by letter: A B C D E F G H I J K L M N O P Q R S T U V W X Y Z 0-9

 
Nunca Supiste
Guitarra 1: Leo
Guitarra 2: Mo

Intro:
GUITARRA 1
E|--------------------------------------------------|
B|--------------------------------------------------|
G|--3-3-5-5---5-3---7-7-7-5---3-5---10-10-10-7--5-7-|
D|--x-x-x-x---x-x---x-x-x-x---x-x---x--x--x--x--x-x-|
A|--1-1-3-3---3-1---5-5-5-5---1-3---8--8--8--5--3-5-|
D|--------------------------------------------------|

E|----------------------------------|
B|----------------------------------|
G|--10-10-10-10-10-10-10/11-11------|
D|--x--x--x--x--x--x--x-/x--x-------|
A|--7--7--7--7--7--7--7-/8--8-------|
D|----------------------------------|
LO DE ARRIBA SE TOCA DOS VECES, SOLO KE LA PRIMERA VEZ SE TOKA SOLO
Y EN LA SEGUNDA PARTE ENTRA LA GUITARRA 2, EL BAJO Y LA BATERIA

GUITARRA 2
E|----------------------------------------------------------------------|
B|----------------------------------------------------------------------|
G|--3-3-3-3---3-3-------------------------------------------------------|
D|--3-3-3-3---3-3---1-1-1-1---1-1---5-5-5-5---5-5---3-3-3-3-3-3-3-3-3---|
A|--1-1-1-1---1-1---1-1-1-1---1-1---5-5-5-5---5-5---3-3-3-3-3-3-3-3-3---|
D|------------------1-1-1-1---1-1---5-5-5-5---5-5---3-3-3-3-3-3-3-3-3---|

Y EN EL VERSO ES ASI

GUITARRA 2

“Este accidente me llevó hasta...........”
E|--------|
B|--------|
G|-3~-----|
D|-3~-----|
A|-1~-----|
D|--------|

GUITARRA 1
E|---------1~-------6----8~------6---8--6~----|
B|--------------------6------------6----------|
G|------3-------------------------------------|
D|---3----------------------------------------|
A|--------------------------------------------|
D|--------------------------------------------|

Y EN 
“pasé diez veces contemplar el no querer seguir......”

GUITARRA 2: CON PALM MUTED
E|--------------------------------------------------|
B|--------------------------------------------------|
G|-33333333-----------------------------------------|
D|-33333333--11111111--55555555--33333333-----------|
A|-11111111--11111111--55555555--33333333-----------|
D|-----------11111111--33333333--11111111-----------|X2

GUITARRA 1:
E|------------------------------|
B|------------------------------|
G|-3--5-------------------------|
D|-x--x-------------------------|
A|-1--3-------------------------|
D|------------------------------| X8

Otra vez el intro

GUITARRA 1
E|--------------------------------------------------|
B|--------------------------------------------------|
G|--3-3-5-5---5-3---7-7-7-5---3-5---10-10-10-7--5-7-|
D|--x-x-x-x---x-x---x-x-x-x---x-x---x--x--x--x--x-x-|
A|--1-1-3-3---3-1---5-5-5-5---1-3---8--8--8--5--3-5-|
D|--------------------------------------------------|

E|----------------------------------|
B|----------------------------------|
G|--10-10-10-10-10-10-10/11-11------|
D|--x--x--x--x--x--x--x-/x--x-------|
A|--7--7--7--7--7--7--7-/8--8-------|
D|----------------------------------|

GUITARRA 2
E|----------------------------------------------------------------------|
B|----------------------------------------------------------------------|
G|--3-3-3-3---3-3-------------------------------------------------------|
D|--3-3-3-3---3-3---1-1-1-1---1-1---5-5-5-5---5-5---3-3-3-3-3-3-3-3-3---|
A|--1-1-1-1---1-1---1-1-1-1---1-1---5-5-5-5---5-5---3-3-3-3-3-3-3-3-3---|
D|------------------1-1-1-1---1-1---5-5-5-5---5-5---3-3-3-3-3-3-3-3-3---|

Y EN
“Como quisiera yo asfixiarme en tu respiración.......”

GUITARRA 1
E|------------------------------|
B|------------------------------|
G|-3~---------------------------|
D|-3~---------------------------|
A|-1~---------------------------|
D|------------------------------|

GUITARRA 2
E|--6---8~---6~---6~---8-6~-----|
B|----6--------------6----------|
G|------------------------------|
D|------------------------------|
A|------------------------------|
D|------------------------------|

“Te hubiera dado yo mis ojos....”

GUITARRA 2: CON PALM MUTED
E|--------------------------------------------------|
B|--------------------------------------------------|
G|-33333333-----------------------------------------|
D|-33333333--11111111--55555555--33333333-----------|
A|-11111111--11111111--55555555--33333333-----------|
D|-----------11111111--33333333--11111111-----------|X2

GUITARRA 1
E|-6-66-X-6-X-8-66-X-6-X-8-88-X-6-5-55-X-5-X-----|
B|-6-66-X-6-X-6-66-X-6-X-6-66-X-6-6-66-X-6-X-----|
G|-----------------------------------------------|
D|-----------------------------------------------|
A|-----------------------------------------------|
D|-----------------------------------------------|

CORO:
“Nunca supiste amar......”

AMBAS GUITARRAS:
E|--------------------------------------------------|
B|--------------------------------------------------|
G|-33333333-----------------------------------------|
D|-33333333--11111111--55555555--33333333-----------|
A|-11111111--11111111--55555555--33333333-----------|
D|-----------11111111--33333333--11111111-----------|X2

Y OTRA VEZ EL INTRO UNA VEZ

GUITARRA 1
E|--------------------------------------------------|
B|--------------------------------------------------|
G|--3-3-5-5---5-3---7-7-7-5---3-5---10-10-10-7--5-7-|
D|--x-x-x-x---x-x---x-x-x-x---x-x---x--x--x--x--x-x-|
A|--1-1-3-3---3-1---5-5-5-5---1-3---8--8--8--5--3-5-|
D|--------------------------------------------------|

E|----------------------------------|
B|----------------------------------|
G|--10-10-10-10-10-10-10/11-11------|
D|--x--x--x--x--x--x--x-/x--x-------|
A|--7--7--7--7--7--7--7-/8--8-------|
D|----------------------------------|

GUITARRA 2
E|----------------------------------------------------------------------|
B|----------------------------------------------------------------------|
G|--3-3-3-3---3-3-------------------------------------------------------|
D|--3-3-3-3---3-3---1-1-1-1---1-1---5-5-5-5---5-5---3-3-3-3-3-3-3-3-3---|
A|--1-1-1-1---1-1---1-1-1-1---1-1---5-5-5-5---5-5---3-3-3-3-3-3-3-3-3---|
D|------------------1-1-1-1---1-1---5-5-5-5---5-5---3-3-3-3-3-3-3-3-3---|
En:
“No tengo lagrimas ya todas las lloré por ti”
Va puro bajo

Y en:
“No tengo sangre ya las venas me cortaste”
GUITARRA 1
E|--6---8~---6~---6~---8-6~-----|
B|----6--------------6----------|
G|------------------------------|
D|------------------------------|
A|------------------------------|
D|------------------------------|

Después en:
“Este accidente me llevó....”

GUITARRA 1
E|--6---8~---6~---6~---8-6~-----|
B|----6--------------6----------|
G|------------------------------|
D|------------------------------|
A|------------------------------|
D|------------------------------|

GUITARRA 2: CON PALM MUTED
E|--------------------------------------------------|
B|--------------------------------------------------|
G|-33333333-----------------------------------------|
D|-33333333--11111111--55555555--33333333-----------|
A|-11111111--11111111--55555555--33333333-----------|
D|-----------11111111--33333333--11111111-----------|X2

CORO:
“Nunca supiste......”
AMBAS GUITARRAS:
E|--------------------------------------------------|
B|--------------------------------------------------|
G|-33333333-----------------------------------------|
D|-33333333--11111111--55555555--33333333-----------|
A|-11111111--11111111--55555555--33333333-----------|
D|-----------11111111--33333333--11111111-----------|X2

El Interlude (2:24)

GUITARRA 2
CON PALM MUTED
E|----------------------------------|
B|----------------------------------|
G|----------3333--------------------|
D|--11111---3333-33333--------------|
A|--11111---1111-33333--------------|
D|--11111--------33333--------------|X6

Después de:
“Ya te detesto....” (2:42)

GUITARRA 2
E|----------------------------------|
B|----------------------------------|
G|----------3333--------------------|
D|--11111---3333-33333--------------|
A|--11111---1111-33333--------------|
D|--11111--------33333--------------| X3

E|------------------------------------------------------------------------|
B|------------------------------------------------------------------------|
G|-----8-7-----8-7---------8-7-----8-7----------8-7-----8-7---------8-7---|
D|--8-8-8-8-X-8-8-8-8-8-X-8-8-8-X-8-8-8-10-8-X-8-8-8-X-8-8-8-7-8-X-8-8-8--|
A|------------------------------------------------------------------------|
D|------------------------------------------------------------------------|

En el último coro (2:54)

“Nunca supiste......”
AMBAS GUITARRAS:
E|--------------------------------------------------|
B|--------------------------------------------------|
G|-33333333-----------------------------------------|
D|-33333333--11111111--55555555--33333333-----------|
A|-11111111--11111111--55555555--33333333-----------|
D|-----------11111111--33333333--11111111-----------|X2

TERMINA EN:
“oportunidad”

AMBAS GUITARRAS
E|------------------------------|
B|------------------------------|
G|-3~---------------------------|
D|-3~---------------------------|
A|-1~---------------------------|
D|------------------------------|

[email protected]
 
 
Delux - Nunca Supiste :: indexed at Ultimate Guitar.
Nunca Supiste tabs @ 911Tabs
People who played Delux - Nunca Supiste also played these songs by Delux:
De Mi Enamorate Chords, Dime Tab, Infatuacion Chords, Quien Comparte Tu Silencio Chords, Si Tu Chords, Dime Chords

About the artist behind Nunca Supiste:

Be Bop Deluxe were an English progressive rock band who achieved critical acclaim and moderate commercial success during the mid to late 1970s.

Indexed at Wikipedia.

Show us your talent, perform Nunca Supiste!

Here you can post a video or audio performance. Tell me more ...
Where can we find your performance? Tell me more ...
Your comment:
Please, log in to post your performance.