Artists by letter: A B C D E F G H I J K L M N O P Q R S T U V W X Y Z 0-9

 
Mas De Lo Que Te Imaginas
Tuning: standard
Intro:
Gutarra 1:
e|-------------------------------0-----------------------|
B|---------------------------1-1-1-----------------------|
G|----5--5-5-----4--4-4------------------5-4-------------| (x2)
D|----5--5-5-----5--5-5------------------5-5-------------|
A|3-3---3-3---0-0--0-0-----------------------------------|
E|------------------------1-1-1-1-----3-3----------------|
. . . . . . . . . . . . . .
Guitarra 2:
e|-------------------------------------------------------|
B|-------------------------------------------------------|
G|-------------------------------------------------------|
D|--5-5-5----2-2-2---------------------------------------|(x2)
A|33-3-3---00-0-0-----3-3-3-----5-5-5--------------------|
E|------------------11-1-1----33-3-3---------------------|
.. . . .. . . .. . . .. . .
Verso:
Guitarra 1: 
e|-----------------------------------------------|
B|-----------------------------------------------|
G|-----------------------------------------------|
D|5-5555555--2-222222----------------------------|
A|3-3333333--0-000000-3-333333--5-55555555-------|
E|--------------------1-111111--3-33333333-------|
....... ...... ...... ........
hola como estas
Guitarra 1: 
e|-----------------------------------------------|
B|-----------------------------------------------|
G|-----------------------------------------------|
D|5-5555555--2-222222----------------------------|
A|3-3333333--0-000000-3-333333--5-55555555-------|
E|--------------------1-111111--3-33333333-------|

Guitarra 2:
e|-----------------------------------------|
B|-----------------------------------------|
G|-5--9-7-5-4--5-7-5-9-7-------------------|
D|-x--x-x-x-x--x-x-x-x-x-------------------|
A|-3--7-5-3-2--3-5-3-7-5-------------------|
E|-----------------------------------------|
Ambas guitarras:
e|-------------------------------------------------|
B|-------------------------------------------------|
G|-------------------------------------------------|
D|5-5555555--2-222222------------------------------|
A|3-3333333--0-000000-3-333333--5-55555555---------|
E|--------------------1-111111--3-33333333---------|
... . . ... . .. . . ... . .. 
yo espero aqui, no se que mas puedo decir
Coro:
Ambas guitarras:
e|----------------------------------------------------|
B|----------------------------------------------------|
G|----------------------------------------------------|
D|-55--22---------------------------------------------|
A|-33--00--3333-55555---33-00-333-3-333-3-55555-------|
E|---------1111-33333---------111-1-111-1-33333-------|
... ... 
mas de lo que te imaginas
Verso 2:
Guitarra 1: 
e|---------------------------------------------|
B|---------------------------------------------|
G|---------------------------------------------|
D|5-5555555--2-222222--------------------------|
A|3-3333333--0-000000-3-333333--5-55555555-----|
E|--------------------1-111111--3-33333333-----|
anoche te llame
Guitarra 2:
e|-----------------------------|
B|-----------------------------|
G|-5--9-7-5-4--5-7-5-9-7-------|
D|-x--x-x-x-x--x-x-x-x-x-------|
A|-3--7-5-3-2--3-5-3-7-5-------|
E|-----------------------------|
Ambas guitarras:
e|------------------------------------------|
B|------------------------------------------|
G|------------------------------------------|
D|5-5555555--2-222222-----------------------|
A|3-3333333--0-000000-3-333333--5-55555555--|
E|--------------------1-111111--3-33333333--|
... . . ... . .. . . ... . .. 
yo quiero saver

Coro:
Ambas guitarras:
e|---------------------------------------------------|
B|---------------------------------------------------|
G|---------------------------------------------------|
D|-55--22--------------------------------------------|
A|-33--00--3333-55555---33-00-333-3-333-3-55555------|
E|---------1111-33333---------111-1-111-1-33333------|
... ... 
mas de lo que te imaginas
Solo 1:
Guitarra 1:
e|----------------------------------------------|
B|----------------------------------------------|
G|----------------------------------------------|
D|5-5555555--2-222222---------------------------|
A|3-3333333--0-000000-3-333333--5-55555555------|
E|--------------------1-111111--3-33333333------|

Guitarra 2:
e|-------------------------------|
B|--------3---3--5v--5-3-1-3-1-1v|
G|---3-3-5-5-3-5--------------2--|
D|3-5-5--------------------------|
A|-------------------------------|
E|-------------------------------|
pm. .... ...

e|----------------------------------------------------------|
B|----------1-1-3-1-------1h3/5-----555-3-1-1-3-1---1h3-1-1v|
G|--2-0h2-2-2-----2---2h5-----5-2-5--------------222--------|
D|-----------------2h5--------------------------------------|
A|----------------------------------------------------------|
E|----------------------------------------------------------|

e|------------------------------------------|
B|3p1-3p1-3p1-3p1---55-5-3-1-3-1-1-1v*------|
G|---2---2---2---2--------------2-----------|
D|------------------------------------------|
A|------------------------------------------|
E|------------------------------------------|

verso:
Guitarra 1: pickslide y
e|--------------------------------------------------------|
B|--------------------------------------------------------|
G|-------------------------------------------------5555555|
D|5-5555555--2-222222------------------------------3333333|
A|3-3333333--0-000000-3-333333--5-------------------------|
E|--------------------1-111111--3-------------------------|
....... ....... ...... .......
Coro:
e|---------------------------------------------------------------------|
B|---------------------------------------------------------------------|
G|---------------------------------------------------------------------|
D|7777777-----------------------7-7-7777-------------------------------|
A|5555555-99999999-5-5-5-5-7777-5-5-5555-9-9-9999-5-5-5555-7777--------|
E|--------77777777-3-3-3-3-5555----------7-7-7777-3-3-3333-5555--------|
Solo 2:Guitarra 1:
e|---------------------------------------------------------------------|
B|---------------------------------------------------------------------|
G|---------------------------------------------------------------------|
D|7777777-----------------------7-7-7777-------------------------------|
A|5555555-99999999-5-5-5-5-7777-5-5-5555-9-9-9999-5-5-5555-7777--------|
E|--------77777777-3-3-3-3-5555----------7-7-7777-3-3-3333-5555--------|
Guitarra 2:
e|------------------------------555-3-2v-2-3-2-5p3p2-5p3p2-5p3p2-5p3p2-|
B|-------------5b7-7r5/3-3-3-3-5---------------------------------------|
G|----3-3-5-3-5---------4-4-4------------------------------------------|
D|-3-5-5---------------------------------------------------------------|
A|---------------------------------------------------------------------|
E|---------------------------------------------------------------------|

e|------------------------------------------555-3-2v-2-3-2-------------|
B|------------5b7r-3-3-------------5b7r-3-3----------------------------|
G|---3--3-5-3-------4------3--3-5-3------4-----------------------------|
D|3-5-35---5------------3-5-35---5-------------------------------------|
A|---------------------------------------------------------------------|
E|---------------------------------------------------------------------|
. ........ . .........
e|---------------------------------------------------------------------|
B|-----------5b7r-5b7r-5b7r-3-3*---------------------------------------|
G|-------3-35-----------------2*---------------------------------------|
D|---3-35-5-------------------0*---------------------------------------|
A|3-5-5----------------------------------------------------------------|
E|---------------------------------------------------------------------|
. ........ 

 
 
Delux - Mas De Lo Que Te Imaginas :: indexed at Ultimate Guitar.
Mas De Lo Que Te Imaginas tabs @ 911Tabs
People who played Delux - Mas De Lo Que Te Imaginas also played these songs by Delux:
De Mi Enamorate Chords, Dime Tab, Infatuacion Chords, Quien Comparte Tu Silencio Chords, Si Tu Chords, Dime Chords

About the artist behind Mas De Lo Que Te Imaginas:

Be Bop Deluxe were an English progressive rock band who achieved critical acclaim and moderate commercial success during the mid to late 1970s.

Indexed at Wikipedia.

Show us your talent, perform Mas De Lo Que Te Imaginas!

Here you can post a video or audio performance. Tell me more ...
Where can we find your performance? Tell me more ...
Your comment:
Please, log in to post your performance.