Artists by letter: A B C D E F G H I J K L M N O P Q R S T U V W X Y Z 0-9

 

Entre La Guerra Y El Amor
                        Delux - Entre La Guerra Y El Amor

INTRO (Guitarra 1) X1
E|----------------------------------------------------------------X-X-X-X-|
B|----------------------------------------------------------------X-X-X-X-|
G|-------7-7-7-7-7-7-7-7-7-7-7-7---------9-9-9-9-9-9-9-9-9-9-9-9--X-X-X-X-|
D|-2-4---7-7-7-7-7-7-7-7-7-7-7-7---2-4---9-9-9-9-9-9-9-9-9-9-9-9--X-X-X-X-|
A|-2-4---5-5-5-5-5-5-5-5-5-5-5-5---2-4---7-7-7-7-7-7-7-7-7-7-7-7--X-X-X-X-|
e|-0-2-----------------------------0-2----------------------------X-X-X-X-|

(Guitarra 2)
E|---------------------------------------------------------------|
B|---------------------------------------------------------------|
G|-------7-----9-----11-----14-----------9-----11-----13------16-| X1
D|-------X-----X-----X------X------------X-----X------X-------X--|
A|-------5-----7-----9------12-----------7-----9------11------14-|
e|---------------------------------------------------------------|

VERSO 1 (Guitarra 1) "Entierrame deja sofocar mi realidad..."
E|-----------------------------------|
B|-----------------------------------|
G|-7-7--7----------------------------| X2
D|-7-7--7---7-7--7---4-4--4---2-2--2-|
A|-5-5--5---7-7--7---4-4--4---2-2--2-|
e|----------5-5--5---2-2--2---0-0--0-|

PRE-CORO(Guitarra 1)"Una razón pra k siga...Una speranza una salida
E|--------------------------------------------|
B|--------------------------------------------|
G|-7-7-7-7-7----------------------------------| X2
D|-7-7-7-7-7--7-7-7-7-7--4-4-4-4-4--2-2-2-2-2-|
A|-5-5-5-5-5--7-7-7-7-7--4-4-4-4-4--2-2-2-2-2-|
e|------------5-5-5-5-5--2-2-2-2-2--0-0-0-0-0-|

(Guitarra 2)
E|---------------------------------------------------|
B|-----2--2-------2---2-------2---2----------2-------|
G|-2-2--2---2---2---2---2---2---2---2----2-4---4-2---| X1
D|-------------------------------------4-----------4-|
A|---------------------------------------------------|
e|---------------------------------------------------|

E|--------------------------------------------------|
B|---2--2-------2---2-------2---2-------------------|
G|-2--2---2---2---2---2---2---2---2-----------------| X1
D|-----------------------------------4--4-4-4-4-4-4-|
A|--------------------------------------------------|
e|--------------------------------------------------|

CORO(Guitarra1)"Hey Hey" Hey Hey Llego l momento d encendr
E|--------------------------------------------|
B|--------------------------------------------|
G|-7-7-7-7-7----------------------------------| X4
D|-7-7-7-7-7--2-2-2-2-2--4-4-4-4-4--7-7-7-7-7-|
A|-5-5-5-5-5--2-2-2-2-2--4-4-4-4-4--7-7-7-7-7-|
e|------------0-0-0-0-0--2-2-2-2-2--5-5-5-5-5-|

(Guitarra 2) X2 TODO
E|-------------------------------------------------------------------|
B|-------------------------------------------------------------------|
G|-11-11-11-11-11---13-13-13-13-13---14-14-14-14-14---18-18-18-18-18-|
D|-X--X--X--X--X-----X--X--X--X--X----X--X--X--X--X----X--X--X--X--X-|
A|-9--9--9--9--9----11-11-11-11-11---12-12-12-12-12---16-16-16-16-16-|
e|-------------------------------------------------------------------|

E|-------------------------------------------------------------------|
B|-------------------------------------------------------------------|
G|-11-11-11-11-11---13-13-13-13-13---14-14-14-14-14---9-9-9-9-9-9-9-9|
D|-X--X--X--X--X-----X--X--X--X--X----X--X--X--X--X---X-X-X-X-X-X-X-X|
A|-9--9--9--9--9----11-11-11-11-11---12-12-12-12-12---7-7-7-7-7-7-7-7|
e|-------------------------------------------------------------------|

¡Se Repite!
>*(INTRO)*< (Guitarra 1 y 2)

VERSO 2 (Guitarra 1) "Liberame deja imaginar tu realidad..."
E|----------------------------------------|
B|----------------------------------------|
G|-7-7-7--7-------------------------------| X2
D|-7-7-7--7--7-7-7--7--4-4-4--4--2-2-2--2-|
A|-5-5-5--5--7-7-7--7--4-4-4--4--2-2-2--2-|
e|-----------5-5-5--5--2-2-2--2--0-0-0--0-|
 pm. . .  .  . . .  .  . . .  .  . . .  .

(Guitarra 2) X2
E|------------------------------------------------------------------|
B|-3-3-3-3-3-3-3--2-2-2-2-2-2-2-2--5-5-5--3-3-3--2-2-2--------------|
G|------------------------------------------------------2-2-2-2-2-2-|
D|------------------------------------------------------------------|
A|------------------------------------------------------------------|
e|------------------------------------------------------------------|
 pm. . . . . . .  . . . . . . . .  . . .  . . .  . . .  . . . . . .

¡Se Repite!
>*(PRE-CORO)*< (Guitarra 1 y 2)
>*(CORO)*< (Guitarra 1 y 2)

INTERMEDIO (Guitarra 1)
E|------------------------------------|
B|------------------------------------|
G|-7-----------------7----------------| X2
D|-7--------2--------7--------4-----7-|Tocar A Un Volumen Bajo
A|-5--------2--------5--------4-----7-|     "Dejar Sonar"
e|----------0-----------------2-----5-|

PIANO X2
E|--------12------------------------------------12----------------|
B|--10-12----14-12-12--------------------12---14--12--12----12-14-|
G|9-------------------14-13-14-13--9---9------------------14------|
D|----------------------------------------------------------------|
A|----------------------------------------------------------------|
e|----------------------------------------------------------------|

(Guitarra 1) X2
E|-------------------------------------------------------------------
B|-------------------------------------------------------------------
G|11-11---11-11-11---11-11-11---11/--13-13---13-13-13---13-13-13--13/
D|-X--X----X--X--X----X--X--X---X-/---X--X----X--X--X----X--X--X---X/
A|-9--9----9--9--9----9--9--9---9-/--11-11---11-11-11---11-11-11--11/
e|-------------------------------------------------------------------

E|------------------------------------------------------------------|
B|------------------------------------------------------------------|
G|13/--14-14---14-14-14---14-14-14---14-14-14--14/---13-13--13-13-13|
D|-X/---X--X----X--X--X----X--X--X----X--X--X---X/----X--X---X--X--X|
A|11/--12-12---12-12-12---12-12-12---12-12-12--12/---11-11--11-11-11|
e|------------------------------------------------------------------|

(Guitarra 2)
E|------------------------------------------------------------------
B|------------------------------------------------------------------
G|------------------------------------------------------------------
D|------------------------------------------------------------------
A|-5-5-x-5-5-5-x-5-5-5-x-5------------------------------------------
e|--------------------------0-0-x-0-0-0-x-0-0-0-x-0--5-5-x-5-5-5-x-5

E|-----------------------------|
B|-----------------------------|
G|-----------------------------| X1
D|-----------------------------|
A|-----------------------------|
e|-4-4-x-4-4-4-x-4-4-4-x-4-4-4-|

X1 TODO
E|---------------------------------------------------------------
B|---------------------------------------------------------------
G|-11-11---11-11-11---11-11-11--11/--13-13---13-13-13---13-13-13-
D|--X--X----X--X--X----X--X--X---X-/--X--X----X--X--X----X--X--X-
A|--9--9----9--9--9----9--9--9---9-/-11-11---11-11-11---11-11-11-
e|---------------------------------------------------------------

E|------------------------------------------------------------------|
B|------------------------------------------------------------------|
G|-13/--18-18--18-18-18--18-18-18--18/--21-21-21-21-21/--18-18-18-18|
D|--X/---X--X---X--X--X---X--X--X---X/---X--X--X--X--X/---X--X--X--X|
A|-11/--16-16--16-16-16--16-16-16--16/--19-19-19-19-19/--16-16-16-16|
e|------------------------------------------------------------------|
¡Hasta Aqui Termina El INTERMEDIO!

¡Se Repite!
>*(CORO)*< (Guitarra 1 y 2) Ahora Por X8 En Total

En La Septima Vuelta Del Coro Va Esto:Lo que se hizo en el PRE-CORO
(Guitarra 2)
E|---------------------------------------------------|
B|-----2--2-------2---2-------2---2----------2-------|
G|-2-2--2---2---2---2---2---2---2---2----2-4---4-2---| X1
D|-------------------------------------4-----------4-|
A|---------------------------------------------------|
e|---------------------------------------------------|

E|--------------------------------------------------|
B|---2--2-------2---2-------2---2-------------------|
G|-2--2---2---2---2---2---2---2---2-----------------| X1
D|-----------------------------------4--4-4-4-4-4-4-|
A|--------------------------------------------------|
e|--------------------------------------------------|

¡Se Repite!
>*(INTRO)*< (Guitarra 1 y 2)

 
 
Delux - Entre La Guerra Y El Amor :: indexed at Ultimate Guitar.
Entre La Guerra Y El Amor tabs @ 911Tabs
People who played Delux - Entre La Guerra Y El Amor also played these songs by Delux:
De Mi Enamorate Chords, Dime Tab, Infatuacion Chords, Quien Comparte Tu Silencio Chords, Si Tu Chords, Dime Chords

About the artist behind Entre La Guerra Y El Amor:

Be Bop Deluxe were an English progressive rock band who achieved critical acclaim and moderate commercial success during the mid to late 1970s.

Indexed at Wikipedia.

Show us your talent, perform Entre La Guerra Y El Amor!

Here you can post a video or audio performance. Tell me more ...
Where can we find your performance? Tell me more ...
Your comment:
Please, log in to post your performance.