Artists by letter: A B C D E F G H I J K L M N O P Q R S T U V W X Y Z 0-9

 
Abre Los Hojos
Abre los ojos  - Delux
Tab Hecho Por: Ezekiel Ortiz- [email protected]


guitarra 1
INTRO P.M
(tokar 4 veses P.M)
e-----5-----7-----9-----8-----------------------------
b--5-5---5-5---5-5---5-5------------------------------
g--------------------------------------------------------
d--------------------------------------------------------
a--------------------------------------------------------
E--------------------------------------------------------

GUITARRA 2
e-----------------------------------------------------------
b-----------------------------------------------------------
g----------7---------------------------------------------
d-7--------7---------4------------------------------------
a-7--------5---------4-------- 2-------------------------
e-5------------------2---------0--------------------------

(tokar 4 veses)
e-----5-----7-----9-----8-----------------------------
b--5-5---5-5---5-5---5-5------------------------------
g--------------------------------------------------------
d--------------------------------------------------------
a--------------------------------------------------------
E--------------------------------------------------------


P.M
(escuchen el ritmo del p.m para que se escuche mejor)
e-----------------------------------------------------------
b-----------------------------------------------------------
g-------------------------------------------------------
d-----------7777-----------------------------------------
a-7777------5555-------4444-----2222---------------------
E-5555-----------------2222-----0000---------------------

Verso
guitarra 1
P.M
(esto se repite dos veses)
y trato de enterrar todo lo que te ise pasar etc.......
E-----------------------------------------------------------
B-----------------------------------------------------------
G----------------------------------------------------------
D-----------7777-----9999-----7777----------------------------
A-7777------5555-----7777-----5555---------------------------
E-5555---------------------------------------------------

guitarra 2
(al fondo del verso se escucha algo asi)
x2
e--9-5-9-5-4-5---------------------------------------------------------

Coro
Guitarra 1 y 2
y nunca pense que para mi podria ser dificil!!! etc....
e-------------------------------------------------------------------
b-------------------------------------------------------------------
g--------------------------------------------------------------------
d--------7777-----------9999------------7777------------9999----
a-7-7----5555-----4-4---7777-----7-7----5555------4-4---7777----
E-5-5-------------2-2------------5-5--------------2-2-------------
Verso
guitarra 1
P.M
x2=(tokar dos veses)
E-----------------------------------------------------------
B-----------------------------------------------------------
G----------------------------------------------------------
D-----------7777-----9999-----7777----------------------------
A-7777------5555-----7777-----5555---------------------------
E-5555---------------------------------------------------

Coro
Guitarra 1 y 2
y nunca pense que para mi podria ser dificil!!! etc....
e-------------------------------------------------------------------
b-------------------------------------------------------------------
g--------------------------------------------------------------------
d--------7777-----------9999------------7777------------9999---------
a-7-7----5555-----4-4---7777-----7-7----5555------4-4---7777---------
E-5-5-------------2-2------------5-5--------------2-2----------------

guitarra 2
x2
g---2-2-7-7-4-7-7--------------------------------------

Cosa antes del solo
guitarra 1
e/ 12---10----9---10---12-----12---10----9----10----12

guitarra 2
g-----7-6-------7-6-----7-6-----7-6-----7-6--7/9---------
d-7-7-------7-7------7-7-----7-7------7-7-----------------

Solo
guitarra 1
(casi no me lo se pero ayi le trate conste que no esta tan bien)
e------------------------------------------------------------------------------------------------------------
b------------------------------------------------------------------------------------------------------------
g------------------------------------------------------------------------------------------------------------
d--12-9h10-9-10-9-------9-10-12-9-10-------9-10-12-16-14-12-11-12-14-12-11-14-12-11----
a--------------------10-12---------------10-12--------------------------------------------------9-10------
E-------------------------------------------------------------------------------------------------------------

guitarrra 2
e------------------------------------------------
b------------------------------------------------
g------------------------------------------------
d----------7777---------------------------------
a-7777----5555----4444----2222---------------
E-5555-------------2222----0000--------------

verso
( no mas esta parte la toka el bajo no mas, despues entra la guitarra)

g--------------------------------------------------------
d---------------------------------------------------------
a--------------7-7-7-7-7--------------------------------
E-5-5-5-5-5--------------2-2-2-2-2--0-0-0-0-0-------

guitarra
(escuchen el ritmo de esta parte)
e-------------------------------------------------------
b-------------------------------------------------------
g----12-12-12-12-12-12-----------------------------
d-----x--x--x--x-x---x-------------------------
a----10-10-10-10-10-10----------------------------
E----------------------------------------------------

Coro
Guitarra 1 y 2
e--------------------------------------------------------------------
b--------------------------------------------------------------------
g--------------------------------------------------------------------
d--------7777----------------------------7777----------------------
a-7-7----5555-----4-4---2222----7-7------5555----4-4----2222------
E-5-5-------------2-2---0000----5-5--------------2-2----0000-----

Guitarra 1 y 2
P.M  (esta parte el p.m va rapido cheken la rola para ver como)
e---------------------------------------------------------------------------
b--------------------------------------------------------------------------
g--------------------------------------------------------------------------
d----------7777--------------------------------7777----------------------
a-7777-----5555----4444----2222----7777--------5555----4444----2222-----
E-5555-------------2222----0000----5555----------------2222----0000-----

Gitarra 1
e-----5-----7-----9-----8-----------------------------
b--5-5---5-5---5-5---5-5------------------------------
g--------------------------------------------------------
d--------------------------------------------------------
a--------------------------------------------------------
E--------------------------------------------------------

guitarra 2
x2=(tokar dos veses)
e------------------------------------------------
b------------------------------------------------
g------------------------------------------------                          a---77-------------
d----------7777--------------------------------- la segunda ves termina en E---55-------------
a-7777-----5555-----4444----2222---------------
E-5555-------------2222----0000--------------

bueno aver que les parese este tab yo se que no esta 100% bien pero depertida ayi le trate de 
sacarlo. dudas o sugerencias agregemen asu messenger mi mail es
[email protected]
 
 
Delux - Abre Los Hojos :: indexed at Ultimate Guitar.
Abre Los Hojos tabs @ 911Tabs
People who played Delux - Abre Los Hojos also played these songs by Delux:
De Mi Enamorate Chords, Dime Tab, Infatuacion Chords, Quien Comparte Tu Silencio Chords, Si Tu Chords, Dime Chords

About the artist behind Abre Los Hojos:

Be Bop Deluxe were an English progressive rock band who achieved critical acclaim and moderate commercial success during the mid to late 1970s.

Indexed at Wikipedia.

Show us your talent, perform Abre Los Hojos!

Here you can post a video or audio performance. Tell me more ...
Where can we find your performance? Tell me more ...
Your comment:
Please, log in to post your performance.