Artists by letter: A B C D E F G H I J K L M N O P Q R S T U V W X Y Z 0-9

 
Hermanos En El Dolor
Esta Rola se la dedico a todos aquellos cuyas cenizas hacen
brotar sangre de las piedras, por que hasta las piedras cuentan
su historia,
Aclaro algo en el termino D/F# (termino especial) si ven los
acordes, aparece un D con un bajeo en F# pues bien no coloquen
el dedo meñique en la primera cuerda en segundo traste esa es
la forma correcta de sacarlo
-Nota- en la parte que vean Em-F#, A-B,(ver términos abajo)
 es bajeo es decir tocaran la nota de acuerdo al la colocación
 del dedo en esa nota marcada con ?X? o en ?0? obviamente
la X significa colocar el dedo y 0 tocar sin ubicar el dedo
en la nota correspondiente
El ritmo es completamente arpegiado.
Ojo los términos en esta rola van asi:

D/F# Em  G  Am       -nota- Em F# A B
E-0  -0 -3 -0              E---------
B-3  -0 -0 -1              B---------
G-2  -0 -0 -2              G---------
D-0  -2 -0 -2              D---------
A-0  -2 -2 -0              A------0--
E-2  -0 -3 -0              E-x-x----x

el acorde D/F# lo puedes encontrar en acordes especiales a diferencia
del que aparece en esta pagina no colocas el dedo meñique en la
primera cuerda.

bueno ahora la cancio:


Em              G             D/F#              Em Em-F# G
  Corriendo de lado a lado en este infinito desierto,
                    D/F#             Em      Em-F# G
 entre vientos sin alma y piedras muertas.
             D/F#         Em                    Em-F# G
 Y en la espalda de toda piedra está tu destino,
            D/F#            Em
 está más cerca cuando más largo es el camino.


A-B C            G            Am
     Eres mi hermano en el dolor,
A-B C              G                 Am
     entre sentimientos sangra la razón

A-B C              G           Am
     buscando un sueño me marché,
A-B C             G                    Am
     buscando el mundo que nunca encontré.


G-F# Em           G                  D/F#             Em
       El tiempo pasa, el hambre aprieta, los sueños mueren,
Em-F# G               D/F#         Em
       las gotas de lluvia parecen lágrimas.
Em-F# G           D/F#               Em
       Pero no escucha llanto en el cielo,
Em-F# G           D/F#      Em
       ya se olvidaron que estás bajo el suelo.


A-B C            G           Am
     Eres mi hermano en el dolor
A-B C             G                  Am
     entre sentimientos sangra la razón,
A-B C            G            Am
     buscando un sueño me perdí,
A-B C             G                    Am
     buscando un mundo que nunca encontré.


Acá entra solo con guitarra acústica ojo que en este punto
salen también 2 guitarras que adelante les agrego
es un poco difícil la primera parte por lo rápido del
martilleo (h) pero este esta mas fácil de sacar tómense su
tiempo y paciencia


   C              G
E-8-7----------------------------------
B----8h10-8----------------------------
G----------10-9h10/7-9-7---7*----------
D-----------------------10-------------
A--------------------------------------
E--------------------------------------
(*Pull o halar hacia abajo)


  Am
E--------------------------------------
B-------------------------7------------
G------------9-7h9-7-5h7-5-------------
D--------7-10--------------------------
A----7-10------------------------------
E--10----------------------------------

-Ojo esta parte con dos guitarras las identifico como P1 y P2
 Ver el final de la tablatura para saber que ejecuta una y otra
 En esta parte debe haber mucha practica ya que ambas suenan al
 Mismo tiempo.

    C           G            Am
E------8-8/10 10----8-8/10-10---------8$12(5v) P1
B--8-10---------8-10---------8-10-8-10-------

G-----5-5/7-7------5-5/7-7----------5$9(5v)--  P2
D--5-7----------5-7----------5-7-5-7---------
A--------------------------------------------
E--------------------------------------------

(5v) se toca 5 veces en ese punto la cuerda

   C                G
E-12-------12-13-15-13-12--------------------
B---13---13--------------13-13/15 15---------
G-----14-------------------12----------------
D--------------------------------------------
A--------------------------------------------
E--------------------------------------------

   Am
E--------------------------------
B------12-13-15-13h15-12---------
G-12-14------------------14------
D--------------------------------
A--------------------------------
E--------------------------------

Final solo 2 guitarras
Ojo parece fácil pero hay que practicarla bien


  C         G                    Am
E-13-12-10------------------------------------ P1
B---------13-12-10-10-8h10-6-5-6-5-3h5-1h3--
G-------------------------------------------2-
D---------------------------------------------
A---------------------------------------------
E---------------------------------------------

E-17-15-13-------------------------------------- P2
B---------17-15-13-13-12h13-10-8-10-8-----------
G------------------------------------9h10-7h9-5-
D-----------------------------------------------
A-----------------------------------------------
E-----------------------------------------------

(pausa o silencio)


G-F# Em       G              D/F#        Em
       Abandonado en una esquina de este mundo,
Em-F# G              D/F#        Em
       como en la iglesia las lágrimas de los santos,
Em-F# G           D/F#         Em
       y ellos comentan que ya no sonríes,
Em-F# G                    D/F#        Em
       con el alma hecha trizas, es difícil fingir sonrisas.


A-B C             G         Am
     Soy tu hermano en el dolor,
A-B C             G                Am
     Entre sentimientos sangra la razón,
A-B C            G       Am
     y en mi ventana el sol nunca se posó,
A-B C                  G                    Am
     una inmensa nube negra siempre lo ocultó.


Para toda la raza roquera de Honduras y a quienes visitan
esta estupenda pagina, un saludo a mano abierta.
 
 
Delirium Tremens - Hermanos En El Dolor :: indexed at Ultimate Guitar.
Hermanos En El Dolor tabs @ 911Tabs
People who played Delirium Tremens - Hermanos En El Dolor also played these songs by Delirium Tremens:
Cruz Blanca Tab, Hermanos En El Dolor Tab, Che Tab, Hermanos En El Dolor Tab, Cruz Blanca, Che

Quick tip, so you can enjoy Hermanos En El Dolor even more:

You might want to transpose the song if it is too high or too low for you to sing. Just click the desired option while playing a song and all the chords will automatically be transponded into a new key.

Show us your talent, perform Hermanos En El Dolor!

Here you can post a video or audio performance. Tell me more ...
Where can we find your performance? Tell me more ...
Your comment:
Please, log in to post your performance.