Artists by letter: A B C D E F G H I J K L M N O P Q R S T U V W X Y Z 0-9

 
Hermanos En El Dolor
Para toda la banda de Honduras (y todos los que les gusta el Rock hondureño) aquí le envío 
la transcripción completa de una de las primeras rolas de 
este histórico grupo. Espero les guste...


Riff Verso:

|---Sólo al Inicio---|
|-----de C/Verso-----|
   Em                  G                D                Em

e----------0---------|---------3----------------2-----------------0----------------0------------
B------0-------0-----|-----0-------0--------3-------3---------0-------0--------0-------0--------
G----0---0---0---0---|---0---0---0---0----2---2---2---2-----0---0---0---0----0---0---0---0------
D--------------------|------------------0-------------------------------------------------------
A--------------------|--------------------------------------------------------------------------
E--0-----------------|-3----------------------------------0----------------0---------------0-2--
                       |                                                                     |
                       |                                                                     |
                      (*)                                                        Regresar A (*)
             
Riff Coro y Solo:

          C                G                Am

e-------|---------0----------------3----------------0----------------0--------
B-------|-----1-------1--------0-------0--------1-------1--------1-------1----
G-------|---0---0---0---0----0---0---0---0----2---2---2---2----2---2---2---2--
D-------|---------------------------------------------------------------------
A--0-2--|-3---------------------------------0----------------0----------------
E-------|------------------3--------------------------------------------------
   |      |                                                                |
   |      |                                                                |
  [+]    [-]                                                   En el Coro regresar a [+] y
                                                               En el Solo regresar a (-)


Simbología ejemplificada:
-12h14-    hammer on
-14p12-    pull off
-12s13-    slide
-(12)--    nota fantasma
--12~--    vibrato


Intro: 

   Em

e----------0---
B--------0-----
G------0-------
D----2---------
A--2-----------
E--------------


Verso 1: Con Riff Verso

Em              G             D                 Em      Em-F#-G
  Corriendo de lado a lado en este infinito desierto,
                    D                Em      Em-F#-G
  entre vientos sin alma y piedras muertas.
             D              Em                    Em-F#-G
  Y en la espalda de toda piedra está tu destino, 
            D                Em
  está más cerca cuando más largo es el camino.


Coro 1: Con Riff Coro y Solo

A-B-C            G            Am   A-B-C             G                  Am
     Eres mi hermano en el dolor,       entre sentimientos sangra la razón,
A-B-C              G           Am  A-B-C             G                     Am (Silencio)
     buscando un sueño me marché,       buscando el mundo que nunca encontré.


Verso 2: Con Riff Verso

G-F#-Em           G                  D                 Em
       El tiempo pasa, el hambre aprieta, los sueños mueren,
Em-F#-G               D             Em
       las gotas de lluvia parecen lágrimas.
Em-F#-G           D                  Em
       Pero no escucha llanto en el cielo,
Em-F#-G           D           Em
       ya se olvidaron que estás bajo el suelo.


Coro 2: Con Riff Coro y Solo

A-B-C            G            Am   A-B-C             G                  Am
     Eres mi hermano en el dolor,       entre sentimientos sangra la razón,
A-B-C            G            Am   A-B-C             G                  Am
     buscando un sueño me perdí,        buscando un mundo que nunca encontré.


Solo: Con Riff Coro y Solo 


   C                         G            Am

e--7h8-7-5-3-3h5-3--------------------------------------------------
B------------------6-5-3-3h5-3-1-3h5-3~---------------3h5-3-1h3-3~--
G-------------------------------------------------2-4---------------
D---------------------------------------------3-5-------------------
A-----------------------------------------3-5-----------------------
E-------------------------------------------------------------------


   C             G              Am

e--3-5s8-8s10-8~-3-5s8-8s10-8~--8-10-810-8-10h12-12-12-12-12-12/----
B-------------------------------------------------------------------
G-------------------------------------------------------------------
D-------------------------------------------------------------------
A-------------------------------------------------------------------
E-------------------------------------------------------------------


   C                      G                      Am

e--12-10-8-10-12-12-12-12-13-13-12-10-8-8h10-8~--7-8h10-10h12-10-8h10-8-7h8p7-5~--
B---------------------------------------------------------------------------------
G---------------------------------------------------------------------------------
D---------------------------------------------------------------------------------
A---------------------------------------------------------------------------------
E---------------------------------------------------------------------------------


   C          G               Am                 (Silencio)

e--13-12-10-8-7h8-7-5~--3h5-3-----------------------------------------------------
B-----------------------------6-5-3-3h5-3-1---------------------------------------
G-------------------------------------------2~~-----------------------------------
D---------------------------------------------------------------------------------
A---------------------------------------------------------------------------------
E---------------------------------------------------------------------------------


Verso 3: Con Riff Verso

G-F#-Em       G              D            Em
       Abandonado en una esquina de este mundo,
Em-F#-G              D         Em
       como en la iglesia las lágrimas de los santos,
Em-F#-G           D             Em
       y ellos comentan que ya no sonríes,
Em-F#-G                    D           Em
       con el alma hecha trizas, es difícil fingir sonrisas.


Coro 3: Con Riff Coro y Solo

A-B-C            G           Am   A-B-C             G                  Am
     Soy tu hermano en el dolor,       entre sentimientos sangra la razón,


Coro 4: Con Riff Coro y Solo

A-B-C            G       Am 
     y en mi ventana el sol nunca se posó, 
A-B-C                  G                    Am (Termina con un rasgueo en Am)
     una inmensa nube negra siempre lo ocultó.


Dudas y correcciones son bienvenidas... Hasta la próxima!!!
 
 
Delirium Tremens - Hermanos En El Dolor :: indexed at Ultimate Guitar.
Hermanos En El Dolor tabs @ 911Tabs
People who played Delirium Tremens - Hermanos En El Dolor also played these songs by Delirium Tremens:
Cruz Blanca Tab, Hermanos En El Dolor Tab, Che Tab, Hermanos En El Dolor Tab, Hermanos En El Dolor, Cruz Blanca

Quick tip, so you can enjoy Hermanos En El Dolor even more:

YourChords.com Guitar Chords and Tabs Archive is currently indexing over 240'000 songs from 21'000+ different artists. And new chords just keep on coming in, so you will surely never run out of them.

Show us your talent, perform Hermanos En El Dolor!

Here you can post a video or audio performance. Tell me more ...
Where can we find your performance? Tell me more ...
Your comment:
Please, log in to post your performance.