Artists by letter: A B C D E F G H I J K L M N O P Q R S T U V W X Y Z 0-9

 
Che
D|-1--1--1--4--0--1--1--1--4--0--1--1--1--4--0--|
A|-1--1--1--4--0--1--1--1--4--0--1--1--1--4--0--|
d|-1--1--1--4--0--1--1--1--4--0--1--1--1--4--0--|
G|----------------------------------------------|
B|----------------------------------------------|
E|----------------------------------------------|

D|-1--1--1--4--0--1--1--1--4--0--1--1--1--4--0--|
A|-1--1--1--4--0--1--1--1--4--0--1--1--1--4--0--|
d|-1--1--1--4--0--1--1--1--4--0--1--1--1--4--0--|
G|----------------------------------------------|
B|----------------------------------------------|
E|----------------------------------------------|

El coro va aSÍ

D|-----7---7---6---6---6---5---4---4---4---4----|
A|-----7---7---6---6---6---5---4---4---4---4----|
d|-----9---9---8---8---8---7---6---6---6---6----|
G|-----9---9---8---8---8---7---6---6---6---6----|
B|-----8---8---7---7---7---6---6---5---5---5----|
E|-----7---7---6---6---6---5---4---4---4---4----|

Esta es una canción muy chida por cierto la letra es

CHE

Que Viva El Che Guevara¡
Muerto No esta¡
Que Viva El Che Guevara¡

Salta en el Slam, Aqui empieza la protesta 
Unete a la banda, unete a chingar
Al pinche Gobierno, Que no te deja empaz
Aqui empieza la protesta, y Nunca acabara

Que viva el Che¡

COro - Protesta - Nunca dejes mas de Gritar 
     - Protesta - Nunca dejes mas de Gritar x6

Que Viva el Che Guevara¡
Muerto no Esta¡
Que Viva el Che Guevara¡

Me das mucha Pena Por ser un Dejado
Que le da miedo el pinche Estado
Que no Gobierna Por que No Exiges
Que te chinga En tus Narices

Que viva el Che 

Coro (igual al de arriba)

Final es 

protesta hahhahah
protesta hahahah
PROTESTA¡¡¡¡¡¡¡¡¡¡¡¡¡¡¡¡¡
PROTESTA¡¡¡¡¡¡¡¡¡¡¡¡¡¡¡¡¡
 
 
Delirium Tremens - Che :: indexed at Ultimate Guitar.
Che tabs @ 911Tabs
People who played Delirium Tremens - Che also played these songs by Delirium Tremens:
Cruz Blanca Tab, Hermanos En El Dolor Tab, Che Tab, Hermanos En El Dolor Tab, Hermanos En El Dolor, Cruz Blanca

Quick tip, so you can enjoy Che even more:

YourChords.com Guitar Chords and Tabs Archive is currently indexing over 240'000 songs from 21'000+ different artists. And new chords just keep on coming in, so you will surely never run out of them.

Show us your talent, perform Che!

Here you can post a video or audio performance. Tell me more ...
Where can we find your performance? Tell me more ...
Your comment:
Please, log in to post your performance.