Artists by letter: A B C D E F G H I J K L M N O P Q R S T U V W X Y Z 0-9

 
Start Swimming
Delain - Start Swimming 
Tuning: standard tuning
 
This song will be using this chords:
                                                                   
     Asus2 E/C G  C    G7M  F  E     Am   C9 G           Gm   Csus2 Dsus2 Am/F     
E||---------------0---------1--0--|--0----3--3---|-------3----3-----5-----0----|
B||---------------1---------1--0--|--1----3--3---|-------3----3-----5-----1----|
G||--4-----4---4--0----0----2--1--|--2----0--0---|-------3----5-----7-----2----|
D||--2-----2---0--2----4----3--2--|--2----2--0---|-------5----5-----7-----3----|
A||--0-----3---2--3----5----3--2--|--0----3--2---|-------5----3-----5----------|
E||------------3------------1--0--|----------3---|-------3---------------------|


  Dsus4 D(no3)  A#   Dm                  
--3-----5----|--6----5----||
--3-----3----|--6----6----||
--2-----2----|--7----7----||
-------------|--8----7----||
-------------|--8----5----||
-------------|--6---------||

==============================================================================================
[intro part 1]  
    Asus2                           E/C
E||-----------------------------------------------------------|
B||--------------0-----------------------------0--------------|
G||--------4--------4-----4--------------4--------4-----4-----|
D||-----2-----2--------2-----2--------2-----2--------2-----2--|
A||--0-----------------------------3--------------------------|
E||-----------------------------------------------------------|
 
   G                            C G7M
-----------------------------|-------------------------------------||
--------------0--------------|-------------------------------------||
--------4--------4-----4-----|-----------------0-------------------||
-----------0--------0-----0--|--2s4------4--------4----------------||
-----2-----------------------|--3s5---------5--------5----5h7------||
--3--------------------------|-------------------------------------||

[intro part 2]

     Asus2                         E/C
E||-----------------------------------------------------------|
B||--------------0-----------------------------0--------------|
G||--------4--------4-----4--------------4--------4-----4-----|
D||-----2-----2--------2-----2--------2-----2--------2-----2--|
A||--0-----------------------------3--------------------------|
E||-----------------------------------------------------------|


     F                              E
E||--------------1-------------|--0--------------||
B||-----------------1----------|--0--------------||
G||--------2-----------2--(2)--|--0h1------------||
D||-----3-----3----------------|--2--------------||
A||----------------------------|--2--------------||
E||--1-------------------------|--0--------------||


[Intro Chords]

Asus2                 E/C         
I'm waiting for another day
                  G                 C      G7M        
I'm waiting for the clock to reach the six and twelve
Asus2                 E/C
I'm waiting for a holiday
F                 E
I'm waiting for myself
Asus2                 E/C 
I'm waiting for another day
                  G                 C      G7M
I'm waiting for the clock to reach the six and twelve
Asus2            E/C    G
I'm waiting for a holiday
F                 E
I'm waiting for myself


[Verse 1]
F        G                 Am        C9
And all I seem to hear is: stop, stop
   F              G            D           
I'm catching up on you. Don't leave me behind
F          G                 Am            C9
I can't see a soul out here, it's dark, dark
F                  E
I'm catching up on you. 

[Chours]
And all I wonder is:
Am      C           D           F
Why? (Why do I try to start running)
Am      C           D
Why? (What am I running for?)
   

E||------------||
B||------------||
G||--7s9--7----||
D||------------||
A||--5s7--5----||
E||------------||


[Verse 2]

Asus2                 E/C       
I'm waiting for another day
             G                 C      G7M  
The last one was so desperately disappointing
Asus2                 E/C   
I can't seem to focus on what I've done
             G                 C      G7M  
Or where I've been, I can't see, nobody here


F        G                 Am        C9
And all I seem to hear is: stop, stop
   F              G            D           
I'm catching up on you. Don't leave me behind
F          G                 Am            C9
I can't see a soul out here, it's dark, dark
F                  E
I'm catching up on you.

[Chours]
And all I wonder is:
Am      C           D           F
Why? (Why do I try to start running)
Am      C           D
Why? (What am I running for?)


[Breakdown]

Gm              Csus2             Dsus2
Do you remember why we started running?
Gm              Csus2        Am       G
Do you remember why we're running at all?
F        Csus2      Am/F    Dsus2           
If I dared I'd choose to swim
Dsus2 
But it's safer on the shore
Gm              Csus2             Dsus2
Do you remember why we started running?
Gm              Csus2        Am       G
Do you remember why we're running at all?
F        Csus2      Am/F    Dsus2
I would die to get away
C           Dsus4    D(no3)
But I fear to even more


[Piano] 
    
E||--17----12--17--19--20----22--20--19----17----15----17----|
B||----------------------------------------------------------|
G||--14-----9--14--16--17----19--17--16----14----12----14----|
D||--17------------------------------------------------------|
A||----------------------------------------------------------|
E||----------------------------------------------------------|
 
|--17--------17----19----17----16------------13------------12------------10------||
|--------------------------------------------------------------------------------||
|--14--------14----16----14----13------------10-------------9-------------7------||
|--------------------------------------------------------------------------------||
|--------------------------------------------------------------------------------||
|--------------------------------------------------------------------------------||


[Outro]

Dsus2          F          Csus2           G
I would rather stay here the rest of my life
Dsus2          F          Csus2           G
I would rather stay here the rest of my life
Dsus2          F          Csus2           G
I would rather stay here the rest of my life
A#             Dm
Then close my eyes


Dsus2          F          Csus2           G
I would rather stay here the rest of my life
Dsus2          F          Csus2           G
I would rather stay here the rest of my life
Dsus2          F          Csus2           G
I would rather stay here the rest of my life
A#                     Dm
Then close my eyes and start swimming



 
 
Delain - Start Swimming :: indexed at Ultimate Guitar.
Start Swimming tabs @ 911Tabs
People who played Delain - Start Swimming also played these songs by Delain:
We Are The Others Chords, Frozen Tab, April Rain Chords, See Me In Shadows Chords, Frozen Chords, Frozen Tab

About the artist behind Start Swimming:

Delain is a Dutch symphonic metal band. The band was founded by the ex-pianist of Within Temptation, Martijn Westerholt.

Indexed at Wikipedia.

Show us your talent, perform Start Swimming!

Here you can post a video or audio performance. Tell me more ...
Where can we find your performance? Tell me more ...
Your comment:
Please, log in to post your performance.