Artists by letter: A B C D E F G H I J K L M N O P Q R S T U V W X Y Z 0-9

 
Frozen
Tempo=144
Song: (deep) frozen
Band: Delain
Album: Lucidity
Tabbed by: Dizzip
[email protected]
www.Myspace.com/noizeaddicted

note

this song is realy cool i tabbed it first with Guitar Pro that one is here online too... 
fun and please rate

Guitar 1

E||-------|-------|-------|-------|-------|-------|-------|-------|
B||-------|-------|-------|-------|-------|-------|-------|-------|
G||-------|-------|-------|-------|-------|-------|-------|-------|
D||-------|-------|-------|-------|-------|-------|-------|-------|
A||-------|-------|-------|-------|-------|-------|-------|-------|
E||-------|-------|-------|-------|-------|-------|-------|-------|

Q    E  H        E     Q    E  H        E     Q    E  H        E
----------------------|----------------------|----------------------|
----------------------|----------------------|----------------------|
--5-------------------|----------3-----------|--5-------------------|
--5----x--6--------x--|--3----x--3--------x--|--5----x--6--------x--|
--3----x--6--------x--|--3----x--1--------x--|--3----x--6--------x--|
-------x--4--------x--|--1----x-----------x--|-------x--4--------x--|

Q    E  H        E     Q    E  H        E     Q    E  H        E
----------------------|----------------------|----------------------|
----------------------|----------------------|----------------------|
----------3-----------|--5-------------------|----------3-----------|
--3----x--3--------x--|--5----x--6--------x--|--3----x--3--------x--|
--3----x--1--------x--|--3----x--6--------x--|--3----x--1--------x--|
--1----x-----------x--|-------x--4--------x--|--1----x-----------x--|

W                   W                   Q    E  H        E
-------------------|-------------------|----------------------|
-------------------|-------------------|----------------------|
-------------------|-------------------|--5-------------------|
--6----------------|--5----------------|--5----x--6--------x--|
--6----------------|--5----------------|--3----x--6--------x--|
--4----------------|--3----------------|-------x--4--------x--|

Q    E  H        E     Q    E  H        E     Q    E  H        E
----------------------|----------------------|----------------------|
----------------------|----------------------|----------------------|
----------3-----------|--5-------------------|----------3-----------|
--3----x--3--------x--|--5----x--6--------x--|--3----x--3--------x--|
--3----x--1--------x--|--3----x--6--------x--|--3----x--1--------x--|
--1----x-----------x--|-------x--4--------x--|--1----x-----------x--|

^     ^     ^
  E  E  E  E  H           Q    E  H        E     W
-----------------------|----------------------|-------------------|
-----------------------|----------------------|-------------------|
--5-----5-----5--------|----------3-----------|-------------------|
--x-----x-----x--------|--3----x--3--------x--|--6----------------|
--3-----3-----3--------|--3----x--1--------x--|--6----------------|
--x-----x-----x--------|--1----x-----------x--|--4----------------|

Q    Q    H           Q.     Q    E  Q       E  Q    E  H
---------------------|----------------------|----------------------|
---------------------|----------------------|----------------------|
---------------------|----------------------|----------------------|
--5----6----5--------|--3------x----x--3----|--L--3----3--3--------|
--5----6----5--------|--3------x----x--3----|--L--3----3--3--------|
--3----4----3--------|--1------x----x--1----|--L--1----1--1--------|

H.           Q       Q.     E   H           Q.     Q    E  Q
--------------------|----------------------|----------------------|
--------------------|----------------------|----------------------|
--------------------|----------------------|----------------------|
--6------------5----|--L------6S--5--------|--3------x----x--3----|
--6------------5----|--L------6S--5--------|--3------x----x--3----|
--4------------3----|--L------4S--3--------|--1------x----x--1----|

E  Q    E  H            Q.     Q.      Q       W
----------------------|-----------------------|-------------------|
----------------------|-----------------------|-------------------|
----------------------|--10------8------10----|--L----------------|
--L--3----3--3--------|--10------8------10----|--L----------------|
--L--3----3--3--------|---8------6-------8----|--L----------------|
--L--1----1--1--------|---8------6-------8----|--L----------------|

Q.     Q    E  Q       E  Q    E  H           H.           Q
----------------------|----------------------|--------------------|
----------------------|----------------------|--------------------|
----------------------|----------------------|--------------------|
--3------x----x--3----|--L--3----3--3--------|--6------------5----|
--3------x----x--3----|--L--3----3--3--------|--6------------5----|
--1------x----x--1----|--L--1----1--1--------|--4------------3----|

Q.     E   H           Q.     Q    E  Q       E  Q    E  H
----------------------|----------------------|----------------------|
----------------------|----------------------|----------------------|
----------------------|----------------------|----------------------|
--L------6S--5--------|--3------x----x--3----|--L--3----3--3--------|
--L------6S--5--------|--3------x----x--3----|--L--3----3--3--------|
--L------4S--3--------|--1------x----x--1----|--L--1----1--1--------|

Q.     Q.      Q       W                    E   E  E   H        E
-----------------------|-------------------|--------------------------|
-----------------------|-------------------|--------------------------|
--10------8------10----|--L----------------|-------------13--------L--|
--10------8------10----|--L----------------|--10--10-----13--------L--|
---8------6-------8----|--L----------------|--10--10-----11--------L--|
---8------6-------8----|--L----------------|---8---8-----11-----------|

E   Q     H        E      E   Q     H        E      E   Q     H        E
-------------------------|-------------------------|-------------------------|
-------------------------|-------------------------|-------------------------|
--10--10----15--------L--|------------13--------L--|--10--10----15--------L--|
--10--10----15--------L--|--10--10----13--------L--|--10--10----15--------L--|
---8---8----13--------L--|--10--10----11--------L--|---8---8----13--------L--|
---8---8----13--------L--|---8---8----11-----------|---8---8----13--------L--|

E   E  E   H        E      E   Q     H        E     W
--------------------------|-------------------------|-------------------|
--------------------------|-------------------------|-------------------|
-------------13--------L--|--10--10----15--------L--|-------------------|
--10--10-----13--------L--|--10--10----15--------L--|--6----------------|
--10--10-----11--------L--|---8---8----13--------L--|--6----------------|
---8---8-----11-----------|---8---8----13--------L--|--4----------------|

W                    Q     Q     H            E   Q     H        E
-------------------|------------------------|-------------------------|
-------------------|------------------------|-------------------------|
-------------------|--------------13--------|--10--10----15--------L--|
--5----------------|--10----10----13--------|--10--10----15--------L--|
--5----------------|--10----10----11--------|---8---8----13--------L--|
--3----------------|---8-----8--------------|---8---8----13--------L--|

E   Q     H        E      E   Q     H        E      E   E  E   H        E
-------------------------|-------------------------|--------------------------|
-------------------------|-------------------------|--------------------------|
------------13--------L--|--10--10----15--------L--|-------------13--------L--|
--10--10----13--------L--|--10--10----15--------L--|--10--10-----13--------L--|
--10--10----11--------L--|---8---8----13--------L--|--10--10-----11--------L--|
---8---8----11-----------|---8---8----13--------L--|---8---8-----11-----------|

E   Q     H        E     W                   Q    Q    H
-------------------------|-------------------|---------------------|
-------------------------|-------------------|---------------------|
--10--10----15--------L--|-------------------|---------------------|
--10--10----15--------L--|--6----------------|--5----6----8--------|
---8---8----13--------L--|--6----------------|--5----6----8--------|
---8---8----13--------L--|--4----------------|--3----4----6--------|

Q.     Q    E  Q       E  Q    E  H           H.           Q
----------------------|----------------------|--------------------|
----------------------|----------------------|--------------------|
----------------------|----------------------|--------------------|
--3------x----x--3----|--L--3----3--3--------|--6------------5----|
--3------x----x--3----|--L--3----3--3--------|--6------------5----|
--1------x----x--1----|--L--1----1--1--------|--4------------3----|

Q.     E   H           Q.     Q    E  Q       E  Q    E  H
----------------------|----------------------|----------------------|
----------------------|----------------------|----------------------|
----------------------|----------------------|----------------------|
--L------6S--5--------|--3------x----x--3----|--L--3----3--3--------|
--L------6S--5--------|--3------x----x--3----|--L--3----3--3--------|
--L------4S--3--------|--1------x----x--1----|--L--1----1--1--------|

Q.     Q.      Q       W                   Q.     Q    E  Q
-----------------------|-------------------|----------------------|
-----------------------|-------------------|----------------------|
--10------8------10----|--L----------------|----------------------|
--10------8------10----|--L----------------|--3------x----x--3----|
---8------6-------8----|--L----------------|--3------x----x--3----|
---8------6-------8----|--L----------------|--1------x----x--1----|

E  Q    E  H           H.           Q       Q.     E   H
----------------------|--------------------|----------------------|
----------------------|--------------------|----------------------|
----------------------|--------------------|----------------------|
--L--3----3--3--------|--6------------5----|--L------6S--5--------|
--L--3----3--3--------|--6------------5----|--L------6S--5--------|
--L--1----1--1--------|--4------------3----|--L------4S--3--------|

Q.     Q    E  Q       E  Q    E  H            Q.     Q.      Q
----------------------|----------------------|-----------------------|
----------------------|----------------------|-----------------------|
----------------------|----------------------|--10------8------10----|
--3------x----x--3----|--L--3----3--3--------|--10------8------10----|
--3------x----x--3----|--L--3----3--3--------|---8------6-------8----|
--1------x----x--1----|--L--1----1--1--------|---8------6-------8----|

W                    E   E  E   H        E      E   Q     H        E
-------------------|--------------------------|-------------------------|
-------------------|--------------------------|-------------------------|
--L----------------|-------------13--------L--|--10--10----15--------L--|
--L----------------|--10--10-----13--------L--|--10--10----15--------L--|
--L----------------|--10--10-----11--------L--|---8---8----13--------L--|
--L----------------|---8---8-----11-----------|---8---8----13--------L--|

E   Q     H        E      E   Q     H        E      E   E  E   H        E
-------------------------|-------------------------|--------------------------|
-------------------------|-------------------------|--------------------------|
------------13--------L--|--10--10----15--------L--|-------------13--------L--|
--10--10----13--------L--|--10--10----15--------L--|--10--10-----13--------L--|
--10--10----11--------L--|---8---8----13--------L--|--10--10-----11--------L--|
---8---8----11-----------|---8---8----13--------L--|---8---8-----11-----------|

E   Q     H        E     W                   W
-------------------------|-------------------|-------------------|
-------------------------|-------------------|-------------------|
--10--10----15--------L--|-------------------|-------------------|
--10--10----15--------L--|--6----------------|--5----------------|
---8---8----13--------L--|--6----------------|--5----------------|
---8---8----13--------L--|--4----------------|--3----------------|

Q     Q     H            E   Q     H        E      E   Q     H        E
------------------------|-------------------------|-------------------------|
------------------------|-------------------------|-------------------------|
--------------13--------|--10--10----15--------L--|------------13--------L--|
--10----10----13--------|--10--10----15--------L--|--10--10----13--------L--|
--10----10----11--------|---8---8----13--------L--|--10--10----11--------L--|
---8-----8--------------|---8---8----13--------L--|---8---8----11-----------|

E   Q     H        E      E   E  E   H        E      E   Q     H        E
-------------------------|--------------------------|-------------------------|
-------------------------|--------------------------|-------------------------|
--10--10----15--------L--|-------------13--------L--|--10--10----15--------L--|
--10--10----15--------L--|--10--10-----13--------L--|--10--10----15--------L--|
---8---8----13--------L--|--10--10-----11--------L--|---8---8----13--------L--|
---8---8----13--------L--|---8---8-----11-----------|---8---8----13--------L--|

W                   Q    Q    H
-------------------|---------------------|-----------|-----------|-----------|
-------------------|---------------------|-----------|-----------|-----------|
-------------------|---------------------|-----------|-----------|-----------|
--6----------------|--5----6----8--------|-----------|-----------|-----------|
--6----------------|--5----6----8--------|-----------|-----------|-----------|
--4----------------|--3----4----6--------|-----------|-----------|-----------|

-----------|-----------|-----------|-----------|-----------|-----------|
-----------|-----------|-----------|-----------|-----------|-----------|
-----------|-----------|-----------|-----------|-----------|-----------|
-----------|-----------|-----------|-----------|-----------|-----------|
-----------|-----------|-----------|-----------|-----------|-----------|
-----------|-----------|-----------|-----------|-----------|-----------|

<
                          W                     Q     Q     Q    E  E
-----------|-----------|--------------------|--------------------------|
-----------|-----------|--------------------|--------------------------|
-----------|-----------|--5S----------------|--------------------x--x--|
-----------|-----------|--5S----------------|--10----10----10----x--x--|
-----------|-----------|--3S----------------|--10----10----10----x--x--|
-----------|-----------|--3S----------------|---8-----8-----8----L--L--|

Q    Q    Q    E  E     Q    Q    Q    E  E     H        H
-----------------------|-----------------------|--------------------|
-----------------------|-----------------------|--------------------|
-----------------x--x--|-----------------x--x--|--------------------|
--8----8----8----x--x--|--6----6----6----x--x--|--3--------5--------|
--6----6----6----x--x--|--6----6----6----x--x--|--3--------5--------|
--6----6----6----L--L--|--4----4----4----L--L--|--1--------3--------|

H        H           H        H           H        H
--------------------|--------------------|--------------------|
--------------------|--------------------|--------------------|
--------------------|--------------------|--------------------|
--6--------6--------|--5--------5--------|--8--------8--------|
--6--------6--------|--5--------5--------|--8--------8--------|
--4--------4--------|--3--------3--------|--6--------6--------|

W                     Q     Q     Q    E  E     Q    Q    Q    E  E
--------------------|--------------------------|-----------------------|
--------------------|--------------------------|-----------------------|
--------------------|--------------------x--x--|-----------------x--x--|
--6S----------------|--10----10----10----x--x--|--8----8----8----x--x--|
--6S----------------|--10----10----10----x--x--|--6----6----6----x--x--|
--4S----------------|---8-----8-----8----L--L--|--6----6----6----L--L--|

Q    Q    Q    E  E     H        H           W
-----------------------|--------------------|-------------------|
-----------------------|--------------------|-------------------|
-----------------x--x--|--------------------|-------------------|
--6----6----6----x--x--|--3--------5--------|--6----------------|
--6----6----6----x--x--|--3--------5--------|--6----------------|
--4----4----4----L--L--|--1--------3--------|--4----------------|

W                   W                   W
-------------------|-------------------|-------------------|
-------------------|-------------------|-------------------|
-------------------|-------------------|-------------------|
--5----------------|--8----------------|--6----------------|
--5----------------|--8----------------|--6----------------|
--3----------------|--6----------------|--4----------------|

play it very smooth
   H                  Q    Q
--------------------------------|
--/6------------------6----8----|
--------------------------------|
--------------------------------|
--------------------------------|
--------------------------------|

don't let there be any quete moment in the whole
  Q                                                H          E  E
--------------------------------------------------------------------|
--9------------------------------------------------8br--------6-----|
-----------------------------------------------------------------8--|
--------------------------------------------------------------------|
--------------------------------------------------------------------|
--------------------------------------------------------------------|

solo
    W                               W
    H.            Q        Q.       E   H           Q    E  Q    E  Q
------------------------|------------------------|-----------------------|
--9b------------8~----|--L------8b--L--------|--6--------------------|
------------------------|------------------------|-------5--5------------|
------------------------|------------------------|---------------8--8----|
------------------------|------------------------|-----------------------|
------------------------|------------------------|-----------------------|

W
  E  H        E   Q       Q.     Q.     Q
-----------------------|---------------------|
-----------------------|---------------------|
-----------------------|---------------------|
--6--6--------6S--5----|---------------------|
-----------------------|--6------3------8----|
-----------------------|---------------------|

Q      S   S   S  S   S   S  S   S   S  S   S   S      H         Q     Q
-----------------------------------------------------|-------------------------|
--------------------14h-16h-17------------15h-17h-18-|--/18--------18----20----|
--15b----13h-15h-16------------14h-16h-17------------|-------------------------|
-----------------------------------------------------|-------------------------|
---L-------------------------------------------------|-------------------------|
-----------------------------------------------------|-------------------------|

W                               W
   Q     H           E   E      H.             Q        Q.      E   H
----------------------------|------------------------|-----------------------|
--21----20br--------18------|--21b------------20~----|--L------20b--L--------|
------------------------20--|------------------------|-----------------------|
----------------------------|------------------------|-----------------------|
----------------------------|------------------------|-----------------------|
----------------------------|------------------------|-----------------------|

W                W
   T   T  S  E.   S  T   T  S  E.   S  T   T  S  E      H         H
--20p-16---------16-18p-14---------14-16p-13---------|---------------------|
---------18----------------16----------------14------|---------------------|
------------17----------------15----------------13s--|--L--------12--------|
-----------------------------------------------------|---------------------|
-----------------------------------------------------|---------------------|
-----------------------------------------------------|---------------------|

E   E   E   E   E   E    E    E      W
--15--------------------------------|--------------------|
------18--16--15--16--15h--16p--15--|--------------------|
------------------------------------|--17----------------|
------------------------------------|--------------------|
------------------------------------|--------------------|
------------------------------------|--------------------|

E   E  E   H        E      E   Q     H        E      E   Q     H        E
--------------------------|-------------------------|-------------------------|
--------------------------|-------------------------|-------------------------|
-------------13--------L--|--10--10----15--------L--|------------13--------L--|
--10--10-----13--------L--|--10--10----15--------L--|--10--10----13--------L--|
--10--10-----11--------L--|---8---8----13--------L--|--10--10----11--------L--|
---8---8-----11-----------|---8---8----13--------L--|---8---8----11-----------|

E   Q     H        E      E   E  E   H        E      E   Q     H        E
-------------------------|--------------------------|-------------------------|
-------------------------|--------------------------|-------------------------|
--10--10----15--------L--|-------------13--------L--|--10--10----15--------L--|
--10--10----15--------L--|--10--10-----13--------L--|--10--10----15--------L--|
---8---8----13--------L--|--10--10-----11--------L--|---8---8----13--------L--|
---8---8----13--------L--|---8---8-----11-----------|---8---8----13--------L--|

W                   W                    Q     Q     H
-------------------|-------------------|------------------------|
-------------------|-------------------|------------------------|
-------------------|-------------------|--------------13--------|
--6----------------|--5----------------|--10----10----13--------|
--6----------------|--5----------------|--10----10----11--------|
--4----------------|--3----------------|---8-----8--------------|

E   Q     H        E      E   Q     H        E      E   Q     H        E
-------------------------|-------------------------|-------------------------|
-------------------------|-------------------------|-------------------------|
--10--10----15--------L--|------------13--------L--|--10--10----15--------L--|
--10--10----15--------L--|--10--10----13--------L--|--10--10----15--------L--|
---8---8----13--------L--|--10--10----11--------L--|---8---8----13--------L--|
---8---8----13--------L--|---8---8----11-----------|---8---8----13--------L--|

W                   W                   W
--------------------|-------------------|-------------------|
--------------------|-------------------|-------------------|
---9----------------|-------------------|--5----------------|
--10----------------|--8----------------|--6----------------|
--10----------------|--8----------------|--6----------------|
---8----------------|--6----------------|--4----------------|

W                   W
-------------------|-------------------|-----------|-----------||
-------------------|-------------------|-----------|-----------||
--4----------------|-------------------|-----------|-----------||
--5----------------|--3----------------|-----------|-----------||
--5----------------|--3----------------|-----------|-----------||
--3----------------|--1----------------|-----------|-----------||

Guitar 2

E||-------|-------|-------|-------|-------|-------|-------|-------|
B||-------|-------|-------|-------|-------|-------|-------|-------|
G||-------|-------|-------|-------|-------|-------|-------|-------|
D||-------|-------|-------|-------|-------|-------|-------|-------|
A||-------|-------|-------|-------|-------|-------|-------|-------|
E||-------|-------|-------|-------|-------|-------|-------|-------|

Q.     H        E     Q.     H        E     Q.     H        E
---------------------|---------------------|---------------------|
---------------------|---------------------|---------------------|
--5------------------|---------3--------L--|--5------------------|
--5------6--------L--|--3------3--------L--|--5------6--------L--|
--3------6--------L--|--3------1--------L--|--3------6--------L--|
---------4--------L--|--1------------------|---------4--------L--|

Q.     H        E     Q.     H        E     Q.     H        E
---------------------|---------------------|---------------------|
---------------------|---------------------|---------------------|
---------3--------L--|--5------------------|---------3--------L--|
--3------3--------L--|--5------6--------L--|--3------3--------L--|
--3------1--------L--|--3------6--------L--|--3------1--------L--|
--1------------------|---------4--------L--|--1------------------|

W                   W                   Q.     H        E
-------------------|-------------------|---------------------|
-------------------|-------------------|---------------------|
-------------------|-------------------|--5------------------|
--6----------------|--5----------------|--5------6--------L--|
--6----------------|--5----------------|--3------6--------L--|
--4----------------|--3----------------|---------4--------L--|

Q.     H        E     Q.     H        E     Q.     H        E
---------------------|---------------------|---------------------|
---------------------|---------------------|---------------------|
---------3--------L--|--5------------------|---------3--------L--|
--3------3--------L--|--5------6--------L--|--3------3--------L--|
--3------1--------L--|--3------6--------L--|--3------1--------L--|
--1------------------|---------4--------L--|--1------------------|

^      ^      ^
  E   E  E   E  H           Q.     H        E     W
-------------------------|---------------------|-------------------|
-------------------------|---------------------|-------------------|
--x------x------x--------|---------3--------L--|-------------------|
--5------5------5--------|--3------3--------L--|--6----------------|
--3/-----3/-----3--------|--3------1--------L--|--6----------------|
--x------x------x--------|--1------------------|--4----------------|

Q    Q    H           Q.     Q    E  Q       E  Q    E  H
---------------------|----------------------|----------------------|
---------------------|----------------------|----------------------|
---------------------|----------------------|----------------------|
--5----6----5--------|--3------x----x--3----|--L--3----3--3--------|
--5----6----5--------|--3------x----x--3----|--L--3----3--3--------|
--3----4----3--------|--1------x----x--1----|--L--1----1--1--------|

H.           Q       Q.     E   H           Q.     Q    E  Q
--------------------|----------------------|----------------------|
--------------------|----------------------|----------------------|
--------------------|----------------------|----------------------|
--6------------5----|--L------6S--5--------|--3------x----x--3----|
--6------------5----|--L------6S--5--------|--3------x----x--3----|
--4------------3----|--L------4S--3--------|--1------x----x--1----|

E  Q    E  H           Q.     Q.     Q       W
----------------------|---------------------|-------------------|
----------------------|---------------------|-------------------|
----------------------|---------------------|-------------------|
--L--3----3--3--------|--3------1------3----|--L----------------|
--L--3----3--3--------|--3------1------3----|--L----------------|
--L--1----1--1--------|---------------------|-------------------|

Q.     Q    E  Q       E  Q    E  H           H.           Q
----------------------|----------------------|--------------------|
----------------------|----------------------|--------------------|
----------------------|----------------------|--------------------|
--3------x----x--3----|--L--3----3--3--------|--6------------5----|
--3------x----x--3----|--L--3----3--3--------|--6------------5----|
--1------x----x--1----|--L--1----1--1--------|--4------------3----|

Q.     E   H           Q.     Q    E  Q       E  Q    E  H
----------------------|----------------------|----------------------|
----------------------|----------------------|----------------------|
----------------------|----------------------|----------------------|
--L------6S--5--------|--3------x----x--3----|--L--3----3--3--------|
--L------6S--5--------|--3------x----x--3----|--L--3----3--3--------|
--L------4S--3--------|--1------x----x--1----|--L--1----1--1--------|

Q.     Q.     Q       W                    E   E  E  H        E
---------------------|-------------------|-------------------------|
---------------------|-------------------|-------------------------|
---------------------|-------------------|----------------------L--|
--3------1------3----|--L----------------|--10--10-----6--------L--|
--3------1------3----|--L----------------|--10--10-----6--------L--|
---------------------|-------------------|---8---8-----4-----------|

E  Q    H        E      E   Q    H        E     E  Q    H        E
----------------------|------------------------|----------------------|
----------------------|------------------------|----------------------|
-------------------L--|---------------------L--|-------------------L--|
--3--3----8--------L--|--10--10----6--------L--|--3--3----8--------L--|
--3--3----8--------L--|--10--10----6--------L--|--3--3----8--------L--|
--1--1----6--------L--|---8---8----4-----------|--1--1----6--------L--|

E   E  E  H        E     E  Q    H        E     W
-------------------------|----------------------|-------------------|
-------------------------|----------------------|-------------------|
----------------------L--|-------------------L--|-------------------|
--10--10-----6--------L--|--3--3----8--------L--|--6----------------|
--10--10-----6--------L--|--3--3----8--------L--|--6----------------|
---8---8-----4-----------|--1--1----6--------L--|--4----------------|

W                    Q     Q     H           E  Q    H        E
-------------------|------------------------|----------------------|
-------------------|------------------------|----------------------|
-------------------|--------------13--------|-------------------L--|
--5----------------|--10----10----13--------|--3--3----8--------L--|
--5----------------|--10----10----11--------|--3--3----8--------L--|
--3----------------|---8-----8--------------|--1--1----6--------L--|

E   Q    H        E     E  Q    H        E      E   E  E  H        E
------------------------|----------------------|-------------------------|
------------------------|----------------------|-------------------------|
---------------------L--|-------------------L--|----------------------L--|
--10--10----6--------L--|--3--3----8--------L--|--10--10-----6--------L--|
--10--10----6--------L--|--3--3----8--------L--|--10--10-----6--------L--|
---8---8----4-----------|--1--1----6--------L--|---8---8-----4-----------|

E  Q    H        E     W                   Q    Q    H
----------------------|-------------------|---------------------|
----------------------|-------------------|---------------------|
-------------------L--|-------------------|---------------------|
--3--3----8--------L--|--6----------------|--5----6----8--------|
--3--3----8--------L--|--6----------------|--5----6----8--------|
--1--1----6--------L--|--4----------------|--3----4----6--------|

Q.     Q    E  Q       E  Q    E  H           H.           Q
----------------------|----------------------|--------------------|
----------------------|----------------------|--------------------|
----------------------|----------------------|--------------------|
--3------x----x--3----|--L--3----3--3--------|--6------------5----|
--3------x----x--3----|--L--3----3--3--------|--6------------5----|
--1------x----x--1----|--L--1----1--1--------|--4------------3----|

Q.     E   H           Q.     Q    E  Q       E  Q    E  H
----------------------|----------------------|----------------------|
----------------------|----------------------|----------------------|
----------------------|----------------------|----------------------|
--L------6S--5--------|--3------x----x--3----|--L--3----3--3--------|
--L------6S--5--------|--3------x----x--3----|--L--3----3--3--------|
--L------4S--3--------|--1------x----x--1----|--L--1----1--1--------|

Q.     Q.     Q       W                   Q.     Q    E  Q
---------------------|-------------------|----------------------|
---------------------|-------------------|----------------------|
---------------------|-------------------|----------------------|
--3------1------3----|--L----------------|--3------x----x--3----|
--3------1------3----|--L----------------|--3------x----x--3----|
---------------------|-------------------|--1------x----x--1----|

E  Q    E  H           H.           Q       Q.     E   H
----------------------|--------------------|----------------------|
----------------------|--------------------|----------------------|
----------------------|--------------------|----------------------|
--L--3----3--3--------|--6------------5----|--L------6S--5--------|
--L--3----3--3--------|--6------------5----|--L------6S--5--------|
--L--1----1--1--------|--4------------3----|--L------4S--3--------|

Q.     Q    E  Q       E  Q    E  H           Q.     Q.     Q
----------------------|----------------------|---------------------|
----------------------|----------------------|---------------------|
----------------------|----------------------|---------------------|
--3------x----x--3----|--L--3----3--3--------|--3------1------3----|
--3------x----x--3----|--L--3----3--3--------|--3------1------3----|
--1------x----x--1----|--L--1----1--1--------|---------------------|

W                    E   E  E  H        E     E  Q    H        E
-------------------|-------------------------|----------------------|
-------------------|-------------------------|----------------------|
-------------------|----------------------L--|-------------------L--|
--L----------------|--10--10-----6--------L--|--3--3----8--------L--|
--L----------------|--10--10-----6--------L--|--3--3----8--------L--|
-------------------|---8---8-----4-----------|--1--1----6--------L--|

E   Q    H        E     E  Q    H        E      E   E  E  H        E
------------------------|----------------------|-------------------------|
------------------------|----------------------|-------------------------|
---------------------L--|-------------------L--|----------------------L--|
--10--10----6--------L--|--3--3----8--------L--|--10--10-----6--------L--|
--10--10----6--------L--|--3--3----8--------L--|--10--10-----6--------L--|
---8---8----4-----------|--1--1----6--------L--|---8---8-----4-----------|

E  Q    H        E     W                   W
----------------------|-------------------|-------------------|
----------------------|-------------------|-------------------|
-------------------L--|-------------------|-------------------|
--3--3----8--------L--|--6----------------|--5----------------|
--3--3----8--------L--|--6----------------|--5----------------|
--1--1----6--------L--|--4----------------|--3----------------|

Q     Q     H           E  Q    H        E      E   Q    H        E
------------------------|----------------------|------------------------|
------------------------|----------------------|------------------------|
--------------13--------|-------------------L--|---------------------L--|
--10----10----13--------|--3--3----8--------L--|--10--10----6--------L--|
--10----10----11--------|--3--3----8--------L--|--10--10----6--------L--|
---8-----8--------------|--1--1----6--------L--|---8---8----4-----------|

E  Q    H        E      E   E  E  H        E     E  Q    H        E
----------------------|-------------------------|----------------------|
----------------------|-------------------------|----------------------|
-------------------L--|----------------------L--|-------------------L--|
--3--3----8--------L--|--10--10-----6--------L--|--3--3----8--------L--|
--3--3----8--------L--|--10--10-----6--------L--|--3--3----8--------L--|
--1--1----6--------L--|---8---8-----4-----------|--1--1----6--------L--|

W                   Q    Q    H
-------------------|---------------------|-----------|-----------|-----------|
-------------------|---------------------|-----------|-----------|-----------|
-------------------|---------------------|-----------|-----------|-----------|
--6----------------|--5----6----8--------|-----------|-----------|-----------|
--6----------------|--5----6----8--------|-----------|-----------|-----------|
--4----------------|--3----4----6--------|-----------|-----------|-----------|

-----------|-----------|-----------|-----------|-----------|-----------|
-----------|-----------|-----------|-----------|-----------|-----------|
-----------|-----------|-----------|-----------|-----------|-----------|
-----------|-----------|-----------|-----------|-----------|-----------|
-----------|-----------|-----------|-----------|-----------|-----------|
-----------|-----------|-----------|-----------|-----------|-----------|

<
                          W                     Q     Q     Q    E  E
-----------|-----------|--------------------|--------------------------|
-----------|-----------|--------------------|--------------------------|
-----------|-----------|--5S----------------|--10----10----10----x--x--|
-----------|-----------|--5S----------------|--10----10----10----x--x--|
-----------|-----------|--3S----------------|---8-----8-----8----x--x--|
-----------|-----------|--3S----------------|---8-----8-----8----L--L--|

Q    Q    Q    E  E     Q    Q    Q    E  E     H        H
-----------------------|-----------------------|--------------------|
-----------------------|-----------------------|--------------------|
--8----8----8----x--x--|--6----6----6----x--x--|--------------------|
--8----8----8----x--x--|--6----6----6----x--x--|--3--------5--------|
--6----6----6----x--x--|--4----4----4----x--x--|--3--------5--------|
--6----6----6----L--L--|--4----4----4----L--L--|--1--------3--------|

^                    ^                    ^
  H        H           H        H           H        H
--------------------|--------------------|--------------------|
--------------------|--------------------|--------------------|
--------------------|--------------------|--------------------|
--6--------6--------|--5--------5--------|--8--------8--------|
--6--------6--------|--5--------5--------|--8--------8--------|
--4--------4--------|--3--------3--------|--6--------6--------|

W                    Q     Q     Q    E  E     Q    Q    Q    E  E
-------------------|--------------------------|-----------------------|
-------------------|--------------------------|-----------------------|
-------------------|--10----10----10----x--x--|--8----8----8----x--x--|
--6----------------|--10----10----10----x--x--|--8----8----8----x--x--|
--6----------------|---8-----8-----8----x--x--|--6----6----6----x--x--|
--4----------------|---8-----8-----8----L--L--|--6----6----6----L--L--|

Q    Q    Q    E  E     H        H           H        H
-----------------------|--------------------|--------------------|
-----------------------|--------------------|--------------------|
--6----6----6----x--x--|--------------------|--------------------|
--6----6----6----x--x--|--3--------5--------|--6--------6--------|
--4----4----4----x--x--|--3--------5--------|--6--------6--------|
--4----4----4----L--L--|--1--------3--------|--4--------4--------|

H        H           H        H           W
--------------------|--------------------|--------------------|
--------------------|--------------------|--------------------|
--------------------|--------------------|--------------------|
--5--------5--------|--8--------8--------|--6/----------------|
--5--------5--------|--8--------8--------|--6/----------------|
--3--------3--------|--6--------6--------|--4/----------------|

Q.     Q    E  Q       E  Q    E  H           H.           Q
----------------------|----------------------|--------------------|
----------------------|----------------------|--------------------|
----------------------|----------------------|--------------------|
--3------x----x--3----|--L--3----3--3--------|--6------------5----|
--3------x----x--3----|--L--3----3--3--------|--6------------5----|
--1------x----x--1----|--L--1----1--1--------|--4------------3----|

Q.     E   H           Q.     Q    E  Q       E  Q    E  H
----------------------|----------------------|----------------------|
----------------------|----------------------|----------------------|
----------------------|----------------------|----------------------|
--L------6S--5--------|--3------x----x--3----|--L--3----3--3--------|
--L------6S--5--------|--3------x----x--3----|--L--3----3--3--------|
--L------4S--3--------|--1------x----x--1----|--L--1----1--1--------|

Q.     Q.     Q       W                   Q.     Q    E  Q
---------------------|-------------------|----------------------|
---------------------|-------------------|----------------------|
---------------------|-------------------|----------------------|
--3------1------3----|--L----------------|--3------x----x--3----|
--3------1------3----|--L----------------|--3------x----x--3----|
---------------------|-------------------|--1------x----x--1----|

E  Q    E  H           H.           Q       Q.     E   H
----------------------|--------------------|----------------------|
----------------------|--------------------|----------------------|
----------------------|--------------------|----------------------|
--L--3----3--3--------|--6------------5----|--L------6S--5--------|
--L--3----3--3--------|--6------------5----|--L------6S--5--------|
--L--1----1--1--------|--4------------3----|--L------4S--3--------|

Q.     Q    E  Q       E  Q    E  H           Q.     Q.     Q
----------------------|----------------------|---------------------|
----------------------|----------------------|---------------------|
----------------------|----------------------|---------------------|
--3------x----x--3----|--L--3----3--3--------|--3------1------3----|
--3------x----x--3----|--L--3----3--3--------|--3------1------3----|
--1------x----x--1----|--L--1----1--1--------|---------------------|

W                    E   E  E  H        E     E  Q    H        E
-------------------|-------------------------|----------------------|
-------------------|-------------------------|----------------------|
-------------------|----------------------L--|-------------------L--|
--L----------------|--10--10-----6--------L--|--3--3----8--------L--|
--L----------------|--10--10-----6--------L--|--3--3----8--------L--|
-------------------|---8---8-----4-----------|--1--1----6--------L--|

E   Q    H        E     E  Q    H        E      E   E  E  H        E
------------------------|----------------------|-------------------------|
------------------------|----------------------|-------------------------|
---------------------L--|-------------------L--|----------------------L--|
--10--10----6--------L--|--3--3----8--------L--|--10--10-----6--------L--|
--10--10----6--------L--|--3--3----8--------L--|--10--10-----6--------L--|
---8---8----4-----------|--1--1----6--------L--|---8---8-----4-----------|

E  Q    H        E     W                   W
----------------------|-------------------|-------------------|
----------------------|-------------------|-------------------|
-------------------L--|-------------------|-------------------|
--3--3----8--------L--|--6----------------|--5----------------|
--3--3----8--------L--|--6----------------|--5----------------|
--1--1----6--------L--|--4----------------|--3----------------|

Q     Q     H           E  Q    H        E      E   Q    H        E
------------------------|----------------------|------------------------|
------------------------|----------------------|------------------------|
--------------13--------|-------------------L--|---------------------L--|
--10----10----13--------|--3--3----8--------L--|--10--10----6--------L--|
--10----10----11--------|--3--3----8--------L--|--10--10----6--------L--|
---8-----8--------------|--1--1----6--------L--|---8---8----4-----------|

E  Q    H        E      E   E  E   H        E     E  E  E  H        E
----------------------|--------------------------|-----------------------|
----------------------|--------------------------|-----------------------|
-------------------L--|-----------------------L--|--------------------L--|
--3--3----8--------L--|--10--10-----10--------L--|--8--8-----8--------L--|
--3--3----8--------L--|--10--10-----10-----------|--8--8-----8--------L--|
--1--1----6--------L--|---8---8------8-----------|--6--6-----6-----------|

W                   W                   W
-------------------|-------------------|-------------------|-----------|
-------------------|-------------------|-------------------|-----------|
-------------------|-------------------|-------------------|-----------|
--6----------------|--5----------------|--3----------------|-----------|
--6----------------|--5----------------|--3----------------|-----------|
--4----------------|--3----------------|--1----------------|-----------|

-----------||
-----------||
-----------||
-----------||
-----------||
-----------||

Duration Legend
---------------
W - whole
H - half
Q - quarter
E - 8th
S - 16th
T - 32nd
X - 64th
. - note dotted
|-n-|  - n-tuplets

Tablature Legend
----------------
L - tied note
x - dead note
g - grace note
(n) - ghost note
> - accentuded note
NH - natural harmonic
AH - artificial harmonic
TH - tapped harmonic
SH - semi harmonic
PH - pitch harmonic
h - hammer on
p - pull off
b - bend
br - bendRelease
pb - preBend
pbr - preBendRelease
brb - bendReleaseBend
\n/ - tremolo bar dip
\n - tremolo bar dive
-/n - tremolo bar Release up
/n\ - tremolo bar inverted dip
/n - tremolo bar return
-\n - tremolo bar Release down
S - shift slide
s - legato slide
/ -  slide into from below or out of upwards
\ -  slide into from above or out of downwards
~ - vibrato
W - wide vibrato
tr - trill
TP - tremolo picking
T - tapping
S - slap
P - pop
< - fade in
^ - brush up
v - brush down
 
 
Delain - Frozen :: indexed at Ultimate Guitar.
Frozen tabs @ 911Tabs
People who played Delain - Frozen also played these songs by Delain:
We Are The Others Chords, Frozen Tab, April Rain Chords, See Me In Shadows Chords, Frozen Chords, Frozen Tab

About the artist behind Frozen:

Delain is a Dutch symphonic metal band. The band was founded by the ex-pianist of Within Temptation, Martijn Westerholt.

Indexed at Wikipedia.

Show us your talent, perform Frozen!

Here you can post a video or audio performance. Tell me more ...
Where can we find your performance? Tell me more ...
Your comment:
Please, log in to post your performance.