Artists by letter: A B C D E F G H I J K L M N O P Q R S T U V W X Y Z 0-9

 
Baltimore Blues No 1
-------------------------------------------------------------------------------
                        BALTIMORE BLUES NO. 1 - Deer Tick
-------------------------------------------------------------------------------
Tabbed by: Maru
E-mail: [email protected]

These are the lead licks/riffs/fills (Synonyms!) for Baltimore Blues No. 1...
Tabbed by ear. It may not be correct, so please correct it! Thanks!
Tuning: E Standard (EADGBe)

Electric Guitar (Distortion)
1.
Option A:
e|----/10--8--5-----------|
B|------------------------|
G|------------------------|
D|------------------------|
A|------------------------|
E|------------------------|

1.
Option B:
e|----/10--8--------------|
B|------------10----------|
G|------------------------|
D|------------------------|
A|------------------------|
E|------------------------|

2.
Option A:
(Place finger at the 13th fret, but mute the 2nd and 3rd strings' notes!)
e|-------10~------13--12----------------------------------------------|
B|-----10~------x-------15--13b15-------------------------------------|
G|---10~------x-------------------------------------------------------|
D|--------------------------------------------------------------------|
A|--------------------------------------------------------------------|
E|--------------------------------------------------------------------|

2.
Option B:
e|-------10~------13--12---10--8b10-----------------------------------|
B|-----10~------x-----------------------------------------------------|
G|---10~------x-------------------------------------------------------|
D|--------------------------------------------------------------------|
A|--------------------------------------------------------------------|
E|--------------------------------------------------------------------|

3.
e|---------------------------------------------------------8------8--10------|
B|------8/10--10--10--8--6-----------------------6--8--10-----10-------------|
G|--------------------------7--5--7-----------7------------------------------|
D|---------------------------------------------------------------------------|
A|---------------------------------------------------------------------------|
E|---------------------------------------------------------------------------|

4.
Option A:
(Hold the bend)
e|----------12b131313--9pb10----------|
B|------------------------------------|
G|------------------------------------|
D|------------------------------------|
A|------------------------------------|
E|------------------------------------|

4.
Option B:
(Mute the bent note before continuing to the 10th fret.)
e|-----------12b131313--10~-----------|
B|------------------------------------|
G|------------------------------------|
D|------------------------------------|
A|------------------------------------|
E|------------------------------------|

4.
Option C:
(Hold the bend.)
e|-----------12b131313---------------|
B|----------------------15~----------|
G|-----------------------------------|
D|-----------------------------------|
A|-----------------------------------|
E|-----------------------------------|

5a.
e|---------------------------------|
B|-----8/10--10-10-10--8--6--------|
G|---------------------------7-----|
D|---------------------------------|
A|---------------------------------|
E|---------------------------------|

e|---8/10--10--10--8--6-----6------|
B|-----------------------7-----7---|
G----------------------------------|
D|---------------------------------|
A|---------------------------------|
E|---------------------------------|

5b.
Option A:
(Place finger at the 13th fret, but mute the 2nd and 3rd strings' notes!)
e|---------13-13-13--12----------------------|
B|-------x--------------15--13--15-----------|
G|-----x-------------------------------------|
D|-------------------------------------------|
A|-------------------------------------------|
E|-------------------------------------------|

5b.
Option B:
(Place finger at the 13th fret, but mute the 2nd and 3rd strings' notes!)
e|-------13--13--13--12----10--8--10-------|
B|-----x-----------------------------------|
G|---x-------------------------------------|
D|-----------------------------------------|
A|-----------------------------------------|
E|-----------------------------------------|

6.
e|------------------8------8------8------8--10---|
B|------6--8---8/10----8/10---8/10---8/10--------|
G|---7-------------------------------------------|
D|-----------------------------------------------|
A|-----------------------------------------------|
E|-----------------------------------------------|

7.
e|----------------------------------------------------|
B|-------8/10-10--8/10-10--8/10-10--10\8--6-----------|
G|-------------------------------------------7--------|
D|----------------------------------------------------|
A|----------------------------------------------------|
E|----------------------------------------------------|

8.
Option A:         
(Hold the bent note on the 8th fret, then bend it 1/4 more/)
`(1/4 bend)`
e|--------------------------------------------|
B|------8b1010-101010`b`10r8--6---------------|
G|-------------------------------7--5--7------|
D|--------------------------------------------|
A|--------------------------------------------|
E|--------------------------------------------|

9.
(Mute the bent note before continuing, releasing each time.)
e|---------------------------------------------------------------------------|
B|-----8b1010--8b1010--8b1010--8b10L---6-------------------------------------|
G|----------------------------------------7----------------------------------|
D|---------------------------------------------------------------------------|
A|---------------------------------------------------------------------------|
E|---------------------------------------------------------------------------|


Order:
1. (x3)
2.
1. (x2)
3.
4.
5a.
1.
5b.
1.
5b.
1.
5a.
6.
4.
7.
1.
8.
1.
9.

************************************

| /   slide up
| \   slide down
| h   hammer-on
| p   pull-off
| ~   vibrato
| +   harmonic
| x   Mute note
| b   Bend
| pb  Pre-bend
| br  Bend release
| pbr Pre-bend release
| brb Bend release bend
|  L  Let note ring out

************************************
 
 
Deer Tick - Baltimore Blues No 1 :: indexed at Ultimate Guitar.
Baltimore Blues No 1 tabs @ 911Tabs
People who played Deer Tick - Baltimore Blues No 1 also played these songs by Deer Tick:
20 Miles Tab, Dirty Dishes Chords, Baltimore Blues No 1 Tab, Ashamed Chords, Art Isnt Real Tab, These Old Shoes Chords

Quick tip, so you can enjoy Baltimore Blues No 1 even more:

After the registration (which takes just 10 seconds, remember?) you will be able to use your profile - your very own piece of YourChords.com.

Show us your talent, perform Baltimore Blues No 1!

Here you can post a video or audio performance. Tell me more ...
Where can we find your performance? Tell me more ...
Your comment:
Please, log in to post your performance.