Artists by letter: A B C D E F G H I J K L M N O P Q R S T U V W X Y Z 0-9

 
Connect
Hello, all! I've been wanting to work on this tab for a while and finally found a 
reasonable sound. There may
still be a few mistakes, but I think you will find that it still sounds pretty good. 
Have fun! Note that the
song is in drop C...so some tampering may be needed for standard tuning.

------------------------------------------------------------------------------------|
------------------------------------16----------------------------------------------|
-13-12-13-15-17--13-15-17--13-15-17----15-15--12-13-15--12-15-13-12-13--------------|
------------------------------------------------------------------------------------|
------------------------------------------------------------------------------------|
------------------------------------------------------------------------------------|


------------------------------------------------------------------------------------|
---------------------------------16-------------------------------------------------|
-12-13-15-17--13-15-17--13-15-17----15-15--13-15-17---------------------------------|
------------------------------------------------------------------------------------|
------------------------------------------------------------------------------------|
------------------------------------------------------------------------------------|


-------------------------------------------------------------------------------------|
------------12-----17-15----------------------12-----17-15--15-17--------------------|
-11p9h11h12----14---------9h11h12--11p9h11h12----14----------------------------------|
-------------------------------------------------------------------------------------|
-------------------------------------------------------------------------------------|
-------------------------------------------------------------------------------------|


-------------------------------------------------------------------------------------|
-12----------------------------------------h12---------------------------------------|
----7-9-10-10-10h12-9-9-9-7-5--5-7-9-5-7-9-----13-12-10-12-10-12-10-9----------------|
-------------------------------------------------------------------------------------|
-------------------------------------------------------------------------------------|
-------------------------------------------------------------------------------------|


---------------------------------------------------------------------------------------|
-12----------------------------h15-12-------------------------15-----------------------|
-----7-9-10-10-10h12-9-9-9-7-5---------12-10-12-10-12-10-12-------14-12-10-------------|
-----------------------------------------------------------10--------------------------|
---------------------------------------------------------------------------------------|
---------------------------------------------------------------------------------------|


-------------------------------------------------------------------------------------|
-------------------------------------------------------------------------------------|
-10-12-14--12-10--10-12----14-14--14-15-17-15-14-12-10-12----------------------------|
------------------------12---------------------------------10--10-10-----------------|
-------------------------------------------------------------------------------------|
-------------------------------------------------------------------------------------|


-------------------------------------------------------------------------------------|
------------------------13-13--------------------------------------------------------|
-10-12-14--12-10--10-12-------9-10--7-10-12-10-12-10--10-12-10-12-14-15--------------|
-------------------------------------------------------------------------------------|
-------------------------------------------------------------------------------------|
-------------------------------------------------------------------------------------|


-------------------------------------------------------------------------------------|
------------------------------------16-----------------------------------------------|
-13-12-13-15-17--13-15-17--13-15-17----15-15--12-13-15--12-15-13-12-13---------------|
-------------------------------------------------------------------------------------|
-------------------------------------------------------------------------------------|
-------------------------------------------------------------------------------------|


------------------------------------------------------------------|
---------------------------------16-------------------------------|
-12-13-15-17--13-15-17--13-15-17----15-15--13-15-17---------------|
------------------------------------------------------------------|
------------------------------------------------------------------|
------------------------------------------------------------------|


----------------------------------------------------------------------------------------|
-----------------------------------16---------------------16-14-13----------------------|
-13-12-13-15-17"13-15-17--13-15-17----15-15--12-13-15--12----------13-------------------|
----------------------------------------------------------------------------------------|
----------------------------------------------------------------------------------------|
----------------------------------------------------------------------------------------|


------------------------------------------------------|
-----------13-13-14-13----14-13--13----16-18----------|
-12-12-13--------------15-----------15----------------|
------------------------------------------------------|
------------------------------------------------------|
------------------------------------------------------|
 
 
Claris - Connect :: indexed at Ultimate Guitar.
Connect tabs @ 911Tabs
People who played Claris - Connect also played these songs by Claris:
Connect Tab, Connect Tab, Hitotsudake Chords, Hitotsu Dake Chords, Hitotsu Dake, Connect

Quick tip, so you can enjoy Connect even more:

Try out the AutoScroller option ... It scrolls the page for you, so you can totally focus on nailing that solo. You can choose among different speeds using your mouse or your keyboard (keys 0, 1, 2 and 3).

Show us your talent, perform Connect!

Here you can post a video or audio performance. Tell me more ...
Where can we find your performance? Tell me more ...
Your comment:
Please, log in to post your performance.