Artists by letter: A B C D E F G H I J K L M N O P Q R S T U V W X Y Z 0-9

 
Casino
-------------------------------------------------------------------------------
                             CASINO " Clare Bowen
-------------------------------------------------------------------------------
Tabbed by: Kath Brown
E-mail: [email protected]

Tuning: standard
Capo on 1st

Intro:
      D                           Am
|-----2----2------5-3-2-0----------------5-3-2-0------------------------------------|
|-----3--3--3---3---------3-------1----3--------3-----------------------------------|
|-----2---------------------------2-------------------------------------------------|
|-----0---------------------------2-------------------------------------------------|
|-----------------------------------------------------------------------------------|
|-----------------------------------------------------------------------------------|

     C                            G
|---------3-2-0-------------------3-------------------------------------------------|
|----1--3------3-0----------------3---0---------------------------------------------|
|----0----------------------------0----2-0------------------------------------------|
|----2----------------------------0-------------------------------------------------|
|----3----------------------------2-------------------------------------------------|
|---------------------------------3-------------------------------------------------|

        D
Like a coin
                              A
I was tossed into a wishing fountain
                     G
I was only one of a thousand
Looking for a little fortune
                      D             A
                  |---2----3--2-----0-----------------------------------------------|
                  |---3-------------2----0--2---------------------------------------|
                  |---2-------------2-----------------------------------------------|
                  |-----------------2-----------------------------------------------|
                  |-----------------------------------------------------------------|
                  |-----------------------------------------------------------------|

And you picked me up and put me into your pocket
    D                                      A
|---2--------------------------------------0----5--0--------------------------------|
|---3--------------------------------------2----------------------------------------|
|---2--------------------------------------2----------------------------------------|
|------------------------------------------2----------------------------------------|
|-----------------------------------------------------------------------------------|
|-----------------------------------------------------------------------------------|
                       G
Nothing I could do to stop it
It started out full of promise
                         D                   A
                     |---2-----3--2-----0-------------------------------------------|
                     |---3---------------2----0--2----------------------------------|
                     |---2---------------2------------------------------------------|
                     |-------------------2------------------------------------------|
                     |--------------------------------------------------------------|
                     |--------------------------------------------------------------|

The shimmer of the shine that I'd never seen before
      Em                                 G
|----------------------------------------3-----0-2-3--------------------------------|
|----------------------------------------3---3--------------------------------------|
|----------------------------------------0------------------------------------------|
|----2-----------------------------------0------------------------------------------|
|----2-----------------------------------2------------------------------------------|
|----------------------------------------3------------------------------------------|

Chorus:
     D
The bright lights
                       Am
I was taken in by the spotlight 
                              C
Coming from the stare of your wanting eyes
Like a Vegas green glow
                    G                        
|-------------------3-----3-------------0-2-3---------------------------------------|
|-------------------3-------3-0------3----------------------------------------------|
|-------------------0---------------------------------------------------------------|
|-------------------0---------------------------------------------------------------|
|-------------------2---------------------------------------------------------------|
|-------------------3---------------------------------------------------------------|

     D                                  Am
Yeah grasping wishing I could roll the dice again
                             C
You can always love but you can't win
A heart is like the money you blow            Casino
                               G                D
|------------------------------3-----5--3"3-----2------------10------3-2------------|
|------------------------------3----------------3--------7-8--------------3---------|
|------------------------------0----------------2----------------------------2------|
|------------------------------0----------------------------------------------------|
|------------------------------2----------------------------------------------------|
|------------------------------3----------------------------------------------------|

Worthless I didn't even know I was losing
  D                                 A
|-2---------------------------------0-----------------------------------------------|
|-3---------------------------------2----2-3-2--------------------------------------|
|-2---------------------------------2-----------2-----------------------------------|
|-----------------------------------2-----------------------------------------------|
|-----------------------------------------------------------------------------------|
|-----------------------------------------------------------------------------------|
But I was just a card you were using
                                G                        
|-------------------------------x-------0-------------------------------------------|
|-------------------------------3-----3---3-----------------------------------------|
|-------------------------------0---------------------------------------------------|
|-------------------------------0---------------------------------------------------|
|-------------------------------2---------------------------------------------------|
|-------------------------------3---------------------------------------------------|

A trick that you were good at playing
                                D 
|-------------------------------2-----3-2-----0-2-0--0-2-0--------------------------|
|-------------------------------3---------3-----------------------------------------|
|-------------------------------2---------------------------------------------------|
|-----------------------------------------------------------------------------------|
|-----------------------------------------------------------------------------------|
|-----------------------------------------------------------------------------------|
Oh and luck didn't build up the Monte Carlo
        D                              A
|-------2------------------------------0----2-0-------------------------------------|
|-------3------------------------------2--------------------------------------------|
|-------2------------------------------2--------------------------------------------|
|--------------------------------------2--------------------------------------------|
|-----------------------------------------------------------------------------------|
|-----------------------------------------------------------------------------------|
                                 G
Just like love never promised tomorrow
You were only looking to borrow
                          D                                        
|-------------------------2---------------------------------------------------------|
|-------------------------3---------------------------------------------------------|
|-------------------------2---------------------------------------------------------|
|------------------------------0-4-2------------------------------------------------|
|-----------------------------------------------------------------------------------|
|-----------------------------------------------------------------------------------|
And I thought I had the chance but I gave it away to
       Em                                     G
|---------------------------------------------3------0-2-3--------------------------|
|---------------------------------------------3----3--------------------------------|
|---------------------------------------------0-------------------------------------|
|------2--------------------------------------0-------------------------------------|
|------2--------------------------------------2-------------------------------------|
|---------------------------------------------3-------------------------------------|

Chorus:
     D
The bright lights
                       Am
I was taken in by the spotlight 
                               C
Coming from the stare of your wanting eyes
Like a Vegas green glow
                    G                        
|-------------------3-----3-------------0-2-3---------------------------------------|
|-------------------3-------3-0------3----------------------------------------------|
|-------------------0---------------------------------------------------------------|
|-------------------0---------------------------------------------------------------|
|-------------------2---------------------------------------------------------------|
|-------------------3---------------------------------------------------------------|
      D                                 Am
Yeah grasping wishing I could roll the dice again
                              C
You can always love but you can't win

A heart is like the money you blow                         Casino
                               G                               D                    
|------------------------------3-------------3-2---------------2--------------------|
|------------------------------3-----3-0-3------3-0------------3--------------------|
|------------------------------0-------------------------------2--------------------|
|------------------------------0----------------------------------------------------|
|------------------------------2----------------------------------------------------|
|------------------------------3----------------------------------------------------|

Solo:
|-10-10-8-8----12-12-12-10-10---8-7-8-7----------------7-10-7-7---------------------|
|----------------------------------------------10-8----10-8-------------------------|
|-----------------------------------------------------------------------------------|
|-----------------------------------------------------------------------------------|
|-----------------------------------------------------------------------------------|
|-----------------------------------------------------------------------------------|

Chorus:
     D
The bright lights
                       Am
I was taken in by the spotlight 
Coming from the stare of your wanting eyes
                               C
|------------------------------0-----3-0--0-3-0-------------------------------------|
|------------------------------1---------1------------------------------------------|
|------------------------------0----------------------------------------------------|
|------------------------------2----------------------------------------------------|
|------------------------------3----------------------------------------------------|
|-----------------------------------------------------------------------------------|
                    G
Like a Vegas green glow
     D                                  Am
Yeah grasping wishing I could roll the dice again
                             C
You can always love but you can't win
                              G        D        
A heart is like the money you blow Casino



Below shows the melody you can use to create lead improv

|-----------------------------------------------------------------------------------|
|-10-10-8-7----7-------10-10-8-7-----------------8-7--------------------------------|
|--------------9---9-----------------7-9-7-----7-9------9-7-------------------------|
|---------------------------------------------------------------9-----7-9-7---------|
|-----------------------------------------------------------------------------------|
|-----------------------------------------------------------------------------------|
 
 
Clare Bowen - Casino :: indexed at Ultimate Guitar.
Casino tabs @ 911Tabs

Quick tip, so you can enjoy Casino even more:

Try out the AutoScroller option ... It scrolls the page for you, so you can totally focus on nailing that solo. You can choose among different speeds using your mouse or your keyboard (keys 0, 1, 2 and 3).

Show us your talent, perform Casino!

Here you can post a video or audio performance. Tell me more ...
Where can we find your performance? Tell me more ...
Your comment:
Please, log in to post your performance.