Artists by letter: A B C D E F G H I J K L M N O P Q R S T U V W X Y Z 0-9

Nicotine And Alcohol Saved My Life - Deaf Havana


 
Nicotine And Alcohol Saved My Life
-------------------------------------------------------------------------------
              Nicotine And Alcohol Saved My Life " Deaf Havana
-------------------------------------------------------------------------------
Tabbed by: Alext09
Email:
 UPDATED!!!

Tuning: drop D (DADGBe)

Intro: chords (clean)
e|--7------------2-------------5--------------------------------------------------|
B|--7------------2-------------5--------------------------------------------------|
G|--9------------4-------------7--------------------------------------------------|
D|--9------------4-------------7--------------------------------------------------|x1
A|--7------------2-------------5--------------------------------------------------|
D|--------------------------------------------------------------------------------|

Pre verse/ pre chorus (rhythm) (distortion)
e|-----------------------------------------------------------------------------|
B|-----------------------------------------------------------------------------|
G|-----------------------------------------------------------------------------| x2
D|----5-------7--------9-------------------------------------------------------|
A|----5"x16---7"x16----9---x32-------------------------------------------------|
D|----5-------7--------9-------------------------------------------------------|

Pre verse/ pre chorus(lead)(distortion)(may also be in background of verse 2 not sure)
E--10-10-10-9-9-9-2-2-2-2-2-2-2-2-2-0-2-2-2-5-5-5-------------------|
B-------------------------------------------------5-5-5-5-5-5-5-5-5-|
G-------------------------------------------------------------------|
D-------------------------------------------------------------------|
A-------------------------------------------------------------------|
E-------------------------------------------------------------------|

E--10-10-10-9-9-9-2-2-2-2-2-2-2-2-2-0-2-2-2-5-5-5-7-7-7-7-7-7-7-7-7-|
B-------------------------------------------------------------------|
G-------------------------------------------------------------------|
D-------------------------------------------------------------------|
A-------------------------------------------------------------------|
E-------------------------------------------------------------------|

Ending Intro

E--10-10-10-9-9-9-2-2-2-2-2-2-2-2-2-0-2-2-2-5-5-5-------------------|
B-------------------------------------------------5-5-5-5-5-5-5-5-5-|
G-------------------------------------------------------------------|
D-------------------------------------------------------------------|
A-------------------------------------------------------------------|
E-------------------------------------------------------------------|

E--10-10-10-9-9-9-2-2-2-2-2-2-2-2-2-0-2-2-2-5-5-5-7-7-7-10-10-12-12-|
B-------------------------------------------------------------------|
G-------------------------------------------------------------------|
D-------------------------------------------------------------------|
A-------------------------------------------------------------------|
E-------------------------------------------------------------------|

E--14~--------------------------------------------------------------|
B-------------------------------------------------------------------|
G-------------------------------------------------------------------| all x2
D-------------------------------------------------------------------|
A-------------------------------------------------------------------|
E-------------------------------------------------------------------|

Verse chords same as intro ones (x2) then for the screaming part of 1st verse: (all clean)

e|-------------------------------------------------------------------------------|
B|-------------------------------------------------------------------------------|
G|---9--------------------7------------------------------------------------------|
D|---7--------------------5------------------------------------------------------|
A|---7"x16----------------5"x16--------------------------------------------------| x2
D|---7--------------------5------------------------------------------------------|

Then back to pre verse/ pre chorus (distortion)

Chorus (distortion)
e|-----------------------------------------------------------------------------|
B|-----------------------------------------------------------------------------|
G|----9---------4-----------7--------------------------------------------------|
D|----9"x8------4---x8------7"x16----------------------------------------------|x2
A|----7---------2-----------5--------------------------------------------------|
D|-----------------------------------------------------------------------------|

Back to verse (clean)

e|-------------------------------------------------------------------------------|
B|-------------------------------------------------------------------------------|
G|---9--------------------7------------------------------------------------------|
D|---7--------------------5------------------------------------------------------|x2
A|---7"x16----------------5"x16--------------------------------------------------|
D|---7--------------------5------------------------------------------------------|

Then back to chorus

Bridge (distortion)
e|------------------------------------------------------------------------------|
B|------------------------------------------------------------------------------|
G|------------------------------------------------------------------------------|x2
D|------------------------------------------------------------------------------|All PM
A|------------------------------------------------------------------------------|
D|--777--999--121212--5555555--777--999--444-5555555----------------------------|

Then stop palm muting and play
e|-----------------------------------------------------------------------------|
B|-----------------------------------------------------------------------------|
G|-----------------------------------------------------------------------------|
D|--7-----9-----12-----5-----7-----9-----4-----5-------------------------------|
A|--7-x3--9-x3--12-x3--5-x7--7-x3--9-x3--4-x3--5-x7----------------------------|
D|--7-----9-----12-----5-----7-----9-----4-----5-------------------------------|

continued
e|-----------------------------------------------------------------------------|
B|-----------------------------------------------------------------------------|
G|-----------------------------------------------------------------------------|
D|--7-----9-----12-----5-----7-----9-----4-----5-------------------------------|
A|--7-x3--9-x3--12-x3--5-x7"-7-----9-----4-----5-------------------------------|
D|--7-----9-----12-----5-----7-----9-----4-----5-------------------------------|
                             Let ring these last four chords

Back to chorus then to Outro: (clean)

e|-----------------------------------------------------------------------------|
B|-----------------------------------------------------------------------------|
G|----9---------4-----------7--------------------------------------------------|
D|----9"x8------4---x8------7"x16----------------------------------------------|x2
A|----7---------2-----------5--------------------------------------------------|All PM
D|-----------------------------------------------------------------------------|

Then un palm mute for the last two bars with the same chords and Finnish on 577
************************************

| /   slide up
| \   slide down
| h   hammer-on
| p   pull-off
| ~   vibrato
| +   harmonic
| x   Mute note
| b   Bend
| pb  Pre-bend
| br  Bend release
| pbr Pre-bend release
| brb Bend release bend

************************************
 
 
Deaf Havana - Nicotine And Alcohol Saved My Life :: indexed at Ultimate Guitar.
Nicotine And Alcohol Saved My Life tabs @ 911Tabs
People who played Deaf Havana - Nicotine And Alcohol Saved My Life also played these songs by Deaf Havana:
Anemophobia Tab, Little White Lies Chords, Kings Road Ghosts Chords, Fifty Four Acoustic Chords, Night Drives Tab, Hunstanton Pier Chords

Quick tip, so you can enjoy Nicotine And Alcohol Saved My Life even more:

You might want to transpose the song if it is too high or too low for you to sing. Just click the desired option while playing a song and all the chords will automatically be transponded into a new key.

Show us your talent, perform Nicotine And Alcohol Saved My Life!

Here you can post a video or audio performance. Tell me more ...
Where can we find your performance? Tell me more ...
Your comment:
Please, log in to post your performance.