Artists by letter: A B C D E F G H I J K L M N O P Q R S T U V W X Y Z 0-9

 
Friends Like These
hey 
i noticed that no one had tabbed this so i went and worked it out is not
100% but its pretty good try it out for urself and rate plz :)

its drop d tunning and pretty cool to play :)

here goes-

intro/verse

chords are
|----------------------0-----------0--|
|--------3-3-----3-----0-------3-3-0--|
|--------2-2-----2-----0-------2-2-0--|
|--2-0-2-0-0-2-0-0-2-0---2-0-2-0-0----|
|--2-0-2-----2-0---2-0---2-0-2--------|
|--2-0-2-----2-0---2-0---2-0-2--------|

first riff
|-------------------------------------|
|-------------------------------------|
|-------------------------------------|
|-------------------------------------|
|-------------------------------------|
|--2p0-5-7-7b9r7-5-0------------------|

second riff
|-------------------------------------|
|-------------------------------------|
|----------------------------------|
|-------------------------------------|
|-------------------------------------|
|--7/9\7-5h7h5p0-2p0------------------|

third riff
|-------------------------------------|
|-------------------------------------|
|-------------------------------------|
|-------------------------------------|
|-------------------------------------|
|--2p0-5-7-7b9r7-5h7p5\2--------------|

the forth time
|----------------------0--------------|
|--------3-3-----3-----0-------3-3----|
|--------2-2-----2-----0-------2-2----|
|--2-0-2-0-0-2-0-0-2-0---2-0-2-0-0-2--|
|--2-0-2-----2-0---2-0---2-0-2-----2--|
|--2-0-2-----2-0---2-0---2-0-2-----2--|

chorus chords are-
|-------------------------------------|
|-------------------------------------|
|--5-----------5----------------------|
|--5--5--0--2--5--5--0--0-------------|
|--3--5--0--2--3--5--0--0-------------|
|-----5--0--2-----5--0--0-------------|

bridge and second verse
|------------------------0------------------|
|----------3-------3-----0---------3--------|
|----------2-------2-----0---------2--------|
|--2-0-2-0-0-2-0-2-0-2-0---2-0-2-0-0-2-0-2--|
|--2-0-2-0---2-0-2---2-0---2-0-2-0---2-0-2--|
|--2-0-2-0---2-0-2---2-0---2-0-2-0---2-0-2--|

riff same for all
|-------------------------------------|
|-------------------------------------|
|--2*b3r2p0---------------------------|
|-----------2p0-----------------------|
|-------------------------------------|
|---------------5-2-------------------|

play 5 times all together

|-------------------------------------|
|-----3-------------------------------|
|----5-----------5--------------------|
|---5---5--0--2--5--5--0--0-----------|
|--3----5--0--2--3--5--0--0-----------|
|-------5--0--2-----5--0--0-----------|

|-------------------------------------|
|-------------------------------------|
|--5-----------5----------------------|
|--5--5--0--2--5--5--0--0-------------|
|--3--5--0--2--3--5--0--0-------------|
|-----5--0--2-----5--0--0-------------|

after that play
|-------------------------------------|
|-------------------------------------|
|-------------------------------------|play twice
|--5-----2-----0----------------------|
|--5-----2-----0----------------------|
|--5-----2-----0----------------------|

verse 3
|----------------------0-----------0--|
|--------3-3-----3-----0-------3-3-0--|
|--------2-2-----2-----0-------2-2-0--|
|--2-0-2-0-0-2-0-0-2-0---2-0-2-0-0----|
|--2-0-2-----2-0---2-0---2-0-2--------|
|--2-0-2-----2-0---2-0---2-0-2--------|

|-------------------------------------|
|-------------------------------------|
|-------------------------------------|
|-------------------------------------|
|-------------------------------------|
|--2p0-5-7-7b9r7-5-0------------------|

|----------------------0-----------------------|
|--------3-3-----3-----0-------3-3--------3-3--|
|--------2-2-----2-----0-------2-2--------2-2--|
|--2-0-2-0-0-2-0-0-2-0---2-0-2-0-0-2-0-2~-0-0--|
|--2-0-2-----2-0---2-0---2-0-2-----2-0-2~------|
|--2-0-2-----2-0---2-0---2-0-2-----2-0-2~------|

sings chorus once the play join in second time
|-------------------------------------|
|-------------------------------------|
|--5-----------5----------------------|play twice
|--5--5--0--2--5--5--0--0-------------|
|--3--5--0--2--3--5--0--0-------------|
|-----5--0--2-----5--0--0-------------|

verse 4
|----------------------0-----------0--|
|--------3-3-----3-----0-------3-3-0--|
|--------2-2-----2-----0-------2-2-0--|
|--2-0-2-0-0-2-0-0-2-0---2-0-2-0-0----|
|--2-0-2-----2-0---2-0---2-0-2--------|
|--2-0-2-----2-0---2-0---2-0-2--------|

first time
|-------------------------------------|
|-------------------------------------|
|-------------------------------------|
|-------------------------------------|
|-------------------------------------|
|--2p0-5-7-7b9r7-5-0------------------|

and end with
|-------------------------------------|
|-------------------------------------|
|-------------------------------------|
|--------------------2----------------|
|--------------------2----------------|
|--7/9\7-5h7h5p0-2p0-2----------------|

and thats it hope u have fun playing it and rate plz :)


 
 
Deaf Havana - Friends Like These :: indexed at Ultimate Guitar.
Friends Like These tabs @ 911Tabs

Quick tip, so you can enjoy Friends Like These even more:

If you spend just 10 seconds to register, you will be able to comment on all the chords and tabs and rate them. You will as well be able to comment on videos of your fellow guitarists and give them ratings from 1 to 5 ... And - of course - you can share your own videos with them and see what they think of you. :)
Click here to join us!

Show us your talent, perform Friends Like These!

Here you can post a video or audio performance. Tell me more ...
Where can we find your performance? Tell me more ...
Your comment:
Please, log in to post your performance.