Artists by letter: A B C D E F G H I J K L M N O P Q R S T U V W X Y Z 0-9

At The Edge Of The Wood (ver 2) - Dead Meadow


 
At The Edge Of The Wood
"At the Edge of the Wood"
Artist: Dead Meadow
Album: Dead Meadow (1999)

Tried my best to tab it out. May be a few mistakes here and there. You'll have to listen
to the song to get the timing/strokes right. Make sure you tune the A string up a whole step to B, 
and the high E string a whole step down to D. You can watch my cover on YouTube if it might
help: https://www.youtube.com/watch?v=NFsKnWHrNRA

Tuning: EBDGBd

Intro/Chorus Riff:

d|-0--0--0--0--0--0------------------------0--0--0--0--0--0--|
B|-0--0--0--0--0--0------------------------7--8--7--8--8--0--|
G|-4--2--4--2--4-----0--0----0--0----0--0--6--6--6--6--6--0--|
D|-4--4--4--4--4-----2--0h2--0--2h4--2--0--7--7--7--7--7-----|
B|-0--0--0--0--0-----0--0----0--0----0--0--0--0--0--0--0-----|
E|-x--x--x--x--x-----x--x----x--x----x--x--x--x--x--x--x-----|

d|-2--4--4----4--2--2--2--2--2--0h2--0--0--0--2-|
B|-2--4--4----2--2--2--3--3--0--0----0--3--0--0-|
G|-2--4--4h6--2--2--2--2--2--1--1----1--1--1--1-|
D|-4--6--6----4--4--4--4--4--2--2----2--2--2--2-|
B|-0--0--0----0--0--0--0--0--0--0----0--0--0--0-|
E|-x--x--x----x--x--x--x--x--x--x----x--x--x--x-|

Verse chord shapes:

d|-7---0---4---0---2---2-|
B|-7---7---5---0---2---0-|
G|-7---6---4---4---2---1-|
D|-9---7---6---5---4---2-|
B|-0---0---0---0---0---0-|
E|-x---x---x---x---x---x-|

 
 
Dead Meadow - At The Edge Of The Wood :: indexed at Ultimate Guitar.
At The Edge Of The Wood tabs @ 911Tabs
People who played Dead Meadow - At The Edge Of The Wood also played these songs by Dead Meadow:
What Needs Must Be Chords, Sleepy Silver Door Tab, Im Gone Chords, Greensky Greenlake Tab, Good Moanin Tab, Stacys Song Chords

Quick tip, so you can enjoy At The Edge Of The Wood even more:

YourChords.com Guitar Chords and Tabs Archive is currently indexing over 240'000 songs from 21'000+ different artists. And new chords just keep on coming in, so you will surely never run out of them.

Show us your talent, perform At The Edge Of The Wood!

Here you can post a video or audio performance. Tell me more ...
Where can we find your performance? Tell me more ...
Your comment:
Please, log in to post your performance.