Artists by letter: A B C D E F G H I J K L M N O P Q R S T U V W X Y Z 0-9

 
I Can See Now
Music by: Lisa Gerrard and Brendan Perry (Toward The Within, 1994)
Time signature: 3/4.
Tempo: approx. 100 bpm.

The majority of the song can be played with varieties of A shapes, such as Am and A7. It would probably be a 
good idea to use the live version of the song from their DVD or the one on YouTube together with this tab to 
study it.


Chords

     A7   Bm11/A  Am7    Am9    Am   A7sus4   Amaj  B11/A   Am7                         
e|---0------0------0------0------0------0------0------0------0---|
B|---2------3------5------0------1------3------5------8------7---|
G|---0------4------6------6------2------0------6------9------8---|
D|---2------4------6------6------2------5------7------10-----9---|
A|---0------0------0------0------0------0------0------0------0---|
E|---x------x------x------x------x------x------x------x------x---|



[Intro]

e|-----------0-----------------0-----------------0----------------0----------|
B|--2-----------2-----3-----------3-----5-----------5/7--3-----------3-------|
G|-----0-----------0-----4-----------4-----6----------------4-----------4----| x2
D|--------2-----------------4-----------------6----------------4-------------|
A|--0--------0--------0--------0--------0--------0-------0--------0----------|
E|---------------------------------------------------------------------------|


[Chorus]

e|-----------0-----------------0-----------------0-----------------0---------|
B|--2-----------2-----3-----------3-----0-----------6-----3-----------3------|
G|-----0-----------0-----4-----------4-----6-----------6-----4-----------4---| x2
D|--------2-----------------4-----------------6-----------------4------------|
A|--0--------0--------0--------0--------0--------0--------0--------0---------|
E|---------------------------------------------------------------------------|

Ever loved a woman who made you feel tall?
Ever loved a man who made you feel small?


[Verse]

e|-----------0--------------0--------|
B|--1-----------1--3-----------3-----|
G|-----2--------------0-----------0--| x4
D|--------2--------------5-----------|
A|--0--------0-----0--------0--------|
E|-----------------------------------|

If you were a sailor
I'd raise the anchor
To sail the sea
In search of you and me and god


[Bridge]

e|-----------0---------------0--------------0--------------0-----|
B|--5-----------5--8------------8--7-----------7--3-----------3--|
G|-----6--------------9---------------8--------------0-----------| x2
D|--------7--------------10--------------9--------------5--------|
A|--0--------0-----0---------0--------------0-----0--------0-----|
E|---------------------------------------------------------------|

Conjures currents to break our fragile boats
And both the innocent and the damned are swallowed up in his wake


[Verse]

e|-----------0--------------0--------|
B|--1-----------1--3-----------3-----|
G|-----2--------------0-----------0--| x4
D|--------2--------------5-----------|
A|--0--------0-----0--------0--------|
E|-----------------------------------|

If you were a huntress
I'd be your bow
For your silver arrows
To seek out his heart


[Chorus]

e|-----------0-----------------0-----------------0-----------------0---------|
B|--2-----------2-----3-----------3-----0-----------6-----3-----------3------|
G|-----0-----------0-----4-----------4-----6-----------6-----4-----------4---| x2
D|--------2-----------------4-----------------6-----------------4------------|
A|--0--------0--------0--------0--------0--------0--------0--------0---------|
E|---------------------------------------------------------------------------|

Ever loved a woman who made you feel tall?
Ever loved a man who made you feel small?


[Verse]

e|-----------0--------------0--------|
B|--1-----------1--3-----------3-----|
G|-----2--------------0-----------0--| x4
D|--------2--------------5-----------|
A|--0--------0-----0--------0--------|
E|-----------------------------------|

Who are you to complain
For lack of understanding?
We are all created equal
In just one thing alone


[Bridge]

e|-----------0---------------0--------------0--------------0-----|
B|--5-----------5--8------------8--7-----------7--3-----------3--|
G|-----6--------------9---------------8--------------0-----------| x2
D|--------7--------------10--------------9--------------5--------|
A|--0--------0-----0---------0--------------0-----0--------0-----|
E|---------------------------------------------------------------|

Alone in your thoughts that ??? you through your life
They'll take you outwards to the dark edge of time


[Verse/Outro]

e|-----------0--------------0--------|
B|--1-----------1--3-----------3-----|
G|-----2--------------0-----------0--| x4
D|--------2--------------5-----------|
A|--0--------0-----0--------0--------|
E|-----------------------------------|

And there's nothing more dangerous
Than a man with nothing to lose
Nothing to live for
And nothing to prove


************************************
| /   Slide up

************************************
 
 
Dead Can Dance - I Can See Now :: indexed at Ultimate Guitar.
I Can See Now tabs @ 911Tabs

About the artist behind I Can See Now:

Dead Can Dance is a band comprising contralto Lisa Gerrard and baritone Brendan Perry. Formed in Melbourne, Australia, in 1981 and initially based there, it disbanded in 1998 but reunited temporarily for a world tour in 2005.

Indexed at Wikipedia.

Show us your talent, perform I Can See Now!

Here you can post a video or audio performance. Tell me more ...
Where can we find your performance? Tell me more ...
Your comment:
Please, log in to post your performance.