Artists by letter: A B C D E F G H I J K L M N O P Q R S T U V W X Y Z 0-9

 
Down Town
-------------------------------------------------------------------------------
                             DOWN TOWN - De Staat
-------------------------------------------------------------------------------
E-mail: [email protected]
Tabbed by: annediao


0:00
e|---------------------------------------------------------------------------|
B|---------------------------------------------------------------------------|
G|---------------------------------------------------------------------------|
D|---7\------------5-5/7-----------------------------------------------------|
A|---7\------------5-5/7-----------------------------------------------------|
E|---5\------------3-3/7-----------------------------------------------------|

e|---------------------------------------------------------------------------|
B|---------------------------------------------------------------------------|
G|---------------------------------------------------------------------------|
D|---------------------------------------------------------------------------|
A|--------------------12\----------------------------------------------------|
E|---------------------------------------------------------------------------|

0:38
e|---------------------------------------------------------------------------|
B|---------------------------------------------------------------------------|
G|---------------------------------------------------------------------------|
D|---11\10--10-10-10-10-10----15-15\14/15\14--14-14-14-14--------------------|
A|---11\10--10-10-10-10-10----15-15\14/15\14--14-14-14-14--------------------|
E|----9\-8---8--8--8--8--8----13-13\12/13\12--12-12-12-12--------------------|

0:45
e|---------------------------------------------------------------------------|
B|---------------------------------------------------------------------------|
G|-----------------5-5-------------------------------------------------------|
D|---7-7-7-7--5-5--5-5--2-2-2-2-2-2-2----------------------------------------|
A|---7-7-7-7--5-5--3-3--2-2-2-2-2-2-2----------------------------------------|
E|---5-5-5-5--3-3-------0-0-0-0-0-0-0----------------------------------------|

1:13
e|---------------------------------------------------------------------------|
B|---7-7-7-7-7-5-------------------------------------5-----------------------|
G|---------------7-5---------------------7-7-7-7-7-5---5---------------------|
D|-------------------7--- X3 ----------------------------7-------------------|
A|---------------------------------------------------------------------------|
E|---------------------------------------------------------------------------|




************************************

| /   slide up
| \   slide down
| h   hammer-on
| p   pull-off
| ~   vibrato
| +   harmonic
| x   Mute note
| b   Bend
| pb  Pre-bend
| br  Bend release
| pbr Pre-bend release
| brb Bend release bend

************************************
 
 
De Staat - Down Town :: indexed at Ultimate Guitar.
Down Town tabs @ 911Tabs

Quick tip, so you can enjoy Down Town even more:

After the registration (which takes just 10 seconds, remember?) you will be able to use your profile - your very own piece of YourChords.com.

Show us your talent, perform Down Town!

Here you can post a video or audio performance. Tell me more ...
Where can we find your performance? Tell me more ...
Your comment:
Please, log in to post your performance.