Artists by letter: A B C D E F G H I J K L M N O P Q R S T U V W X Y Z 0-9

 
Al Otro Lado Del Mar
Bueno, alli les va los tonos que creo que lleva
junto con la intro a 1 sola guitarra
[b]Version novato como yo xD![/b]


E-0-----------2------------------------------0-------------------------
A-----------------------------0----------------------------------------
D--------------------------4-------------------------------------------
G---1-------------3-----3----------------------------------------------
B-0---0---------2-----2-----------------2-0--0-2-0-------0-------------
E-------0-2-4-2-----2-------------0-0-0-------------2-0----------------


E-0-----------2-----------------------------0-------------------------
A-----------------------------0---------------------------------------
D--------------------------4------------------------------------------
G---1-------------3-----3---------------------------------------------
B-0---0---------2-----2-----------------------------------------------
E-------0-2-4-2-----2-------------9-9-9-7-5-7-5-4---------------------


 E                    F7
Quiero ir contigo al lado del mar
A                      E
donde no hay ruido ni gente
                 F7        A
donde besar tus labios de sal
 E               F7
donde tus ojos puedan hablar
A                   E
con la luz del sol poniente
                  F7            A    E
y que mis sueños se hagan realidad

          C#m       F#m
quiero escribir contigo
C#m      F#m
nuestro destino
          G#m            C#m         G#m  F#m
donde el final de los caminos sea el mar
       C#m       F#m
y buscaremos un sitio
 C#m       F#m
bien escondido
        G#m              C#m          G#m   F#m
en un lugar que estar contigo sea lo normal
B7          F#m    A   E
al lado del mar..

C#m                F#m
Una casa en las colinas,
B7                   E     G#m
un verde mar, de estrellas vivas
C#m             F#m            B7
donde soñar que siempre serás mía.

C#m                 F#m
Donde mirar con tus ojos
B7                 E       G#m
y nunca más volver a estar solo
  C#m               F#m          B7
y que nos abrace el viento y el mar.

  E                  F#7
Quiero ir contigo al lado del mar
 A                     E
donde no hay ruido ni gente
 E              F#7        A  E
donde besar tus labios de sal
               F#7
donde tus ojos puedan hablar
 A                    E
con la luz del sol poniente
                  F#7           A   E
y que mis sueños se hagan realidad.

             F#7  A  E
Al lado del mar,
             F#7  A  E
al lado del mar...
             F#7  A  E
Al lado del mar...
 
 
David Summers - Al Otro Lado Del Mar :: indexed at Ultimate Guitar.
Al Otro Lado Del Mar tabs @ 911Tabs

Quick tip, so you can enjoy Al Otro Lado Del Mar even more:

If you don't really know how to deal with "Absus4" chord and his equally confusing brothers, just put the mouse cursor over them and you will be shown a helpful chord diagram.

Show us your talent, perform Al Otro Lado Del Mar!

Here you can post a video or audio performance. Tell me more ...
Where can we find your performance? Tell me more ...
Your comment:
Please, log in to post your performance.