Artists by letter: A B C D E F G H I J K L M N O P Q R S T U V W X Y Z 0-9

 
Lonely Like Me
[Pre-Intro]
e|----------------|
B|----------------|
G|----------------|
D|--0---0---0---0-| X2
A|----------------|
E|3---3---3---3---|

[Intro/Verse]: Last part played once or twice, depending

e|----------------|----------------|----------------|----------------|
B|----------------|----------------|----------------|----------------|
G|------0---------|----------------|----------------|------0---------|
D|--0-4---4-2---0-|--0---0---0---0-|--3---2---0-----|--2-------2---0-|
A|----------------|----------------|--------------3-|3---3---3---3---|
E|3-----------3---|3---3---3---3---|3---3---3---3---|----------------|

e|----------------|----------------| -----------------|----------------|
B|----------------|----------------|o-----------------|----------------|
G|----------------|------0---------| -----0~------0~--|----------------|
D|--3---2---0-----|--2-------2---0-| ---3-------3-----|----0~------0---| X2
A|--------------3-|3---3---3---3---|o-1-------0-------|--0-------0---0-|
E|3---3---3---3---|----------------| -----------------|3-------3-------|

[Chorus]

e|----------------|----------------|----------------|----------------|
B|----------------|----------------|----------------|----------------|
G|------0---------|------0---------|------0---------|------0---------|
D|--2-------2---0-|--0-------0---2-|--2-------2---0-|--0-------0---2-|
A|----------------|----------------|----------------|----------------|
E|0---0---0---0---|3---3---3---3---|0---0---0---0---|3---3---3---3---|

e|----------------|----------------|----------------|----------------|----------------|
B|----------------|----------------|------2---------|------2---------|------1---------|
G|------0---------|------0---------|--------------2-|--------------0-|--------------0-|
D|--3-------3---2-|--2-------2---0-|--2-------2-----|--2-------2-----|--2-------2-----|
A|----------------|----------------|0---0---0---0---|0---0---0---0---|3---3---3---3---|
E|1---1---1---1---|0---0---0---0---|----------------|----------------|----------------|

[Intro/Verse]: Last part played once or twice, depending

e|----------------|----------------|----------------|----------------|
B|----------------|----------------|----------------|----------------|
G|------0---------|----------------|----------------|------0---------|
D|--0-4---4-2---0-|--0---0---0---0-|--3---2---0-----|--2-------2---0-|
A|----------------|----------------|--------------3-|3---3---3---3---|
E|3-----------3---|3---3---3---3---|3---3---3---3---|----------------|

e|----------------|----------------| -----------------|----------------|
B|----------------|----------------|o-----------------|----------------|
G|----------------|------0---------| -----0~------0~--|----------------|
D|--3---2---0-----|--2-------2---0-| ---3-------3-----|----0~------0---| X2
A|--------------3-|3---3---3---3---|o-1-------0-------|--0-------0---0-|
E|3---3---3---3---|----------------| -----------------|3-------3-------|

Chorus

e|----------------|----------------|----------------|----------------|
B|----------------|----------------|----------------|----------------|
G|------0---------|------0---------|------0---------|------0---------|
D|--2-------2---0-|--0-------0---2-|--2-------2---0-|--0-------0---2-|
A|----------------|----------------|----------------|----------------|
E|0---0---0---0---|3---3---3---3---|0---0---0---0---|3---3---3---3---|

e|----------------|----------------|----------------|----------------|----------------|
B|----------------|----------------|------2---------|------2---------|------1---------|
G|------0---------|------0---------|--------------2-|--------------0-|--------------0-|
D|--3-------3---2-|--2-------2---0-|--2-------2-----|--2-------2-----|--2-------2-----|
A|----------------|----------------|0---0---0---0---|0---0---0---0---|3---3---3---3---|
E|1---1---1---1---|0---0---0---0---|----------------|----------------|----------------|

[Chorus Ending]: Might be different, hard to hear

e|----------------|----------------|----------------|
B|------0---------|----------------|----------------|
G|--------------0-|--0-------0-----|------0---------|
D|--0-------0-----|------3-------2-|--2-------2---0-|
A|----------------|----------------|----------------|
E|3---3---3---3---|1---1---1---1---|0---0---0---0---|

[Bridge:] Notes in brackets replace the other ones the second or third time it is played.

e|----------------|----------------|----------------|----------------|
B|----------------|----------------|----------------|----------------|
G|-----(0)-----(0)|-----(0)-----(0)|------0-------0-|------0-------0-|
D|--0---0---0---0-|--0---0---0---0-|--1-------1-----|--1-------1-----|
A|----------------|----------------|2---2---2---2---|2---2---2---2---|
E|3---3---3---3---|3---3---3---3---|----------------|----------------|
                                                                       X3
e|----------------|----------------|----------------|----------------|
B|----------------|----------------|----------------|----------------|
G|------0-------0-|------0-------0-|------0-------0-|------0-------0-|
D|--2-------2-----|--2-------2-----|--1-------1-----|--1-------1-----|
A|3---3---3---3---|3---3---3---3---|2---2---2---2---|2---2---2---2---|
E|----------------|----------------|----------------|----------------|

[Pre-Intro]
e|----------------|
B|----------------|
G|----------------|
D|--0---0---0---0-| X4
A|----------------|
E|3---3---3---3---|

[Intro/Verse]: Last part played once or twice, depending

e|----------------|----------------|----------------|----------------|
B|----------------|----------------|----------------|----------------|
G|------0---------|----------------|----------------|------0---------|
D|--0-4---4-2---0-|--0---0---0---0-|--3---2---0-----|--2-------2---0-|
A|----------------|----------------|--------------3-|3---3---3---3---|
E|3-----------3---|3---3---3---3---|3---3---3---3---|----------------|

e|----------------|----------------| -----------------|----------------|
B|----------------|----------------|o-----------------|----------------|
G|----------------|------0---------| -----0~------0~--|----------------|
D|--3---2---0-----|--2-------2---0-| ---3-------3-----|----0~------0---| X2
A|--------------3-|3---3---3---3---|o-1-------0-------|--0-------0---0-|
E|3---3---3---3---|----------------| -----------------|3-------3-------|

e|----------------|----------------|
B|----------------|----------------|
G|----------------|0-0-0-0-0-0-0-0-|
D|0-0-0-0-0-0-0-0-|2-2-2-2-2-2-2-2-|
A|2-2-2-2-2-2-2-2-|3-3-3-3-3-3-3-3-|
E|3-3-3-3-3-3-3-3-|----------------|

[Ending:] Repeat

e|-----------------|----------------|
B|-----------------|----------------|
G|-----0~------0~--|----------------|
D|---3-------3-----|----0~------0---| X2
A|-1-------0-------|--0-------0---0-|
E|-----------------|3-------3-------|

End with low G.

 
 
David Poe - Lonely Like Me :: indexed at Ultimate Guitar.
Lonely Like Me tabs @ 911Tabs
People who played David Poe - Lonely Like Me also played these songs by David Poe:
Bloody Chords, Lonely Like Me Tab, Bloody

Quick tip, so you can enjoy Lonely Like Me even more:

Try out the AutoScroller option ... It scrolls the page for you, so you can totally focus on nailing that solo. You can choose among different speeds using your mouse or your keyboard (keys 0, 1, 2 and 3).

Show us your talent, perform Lonely Like Me!

Here you can post a video or audio performance. Tell me more ...
Where can we find your performance? Tell me more ...
Your comment:
Please, log in to post your performance.