Artists by letter: A B C D E F G H I J K L M N O P Q R S T U V W X Y Z 0-9

 
Me Da Lo Mismo
Bueno, aqui os dejo otra cancion preciosa de David,
la he sacado entre varios videos, os pongo el enlace
del video principal del que la he sacado,
para que le echeis un ojo y ver como se toca.
Parece liosa, pero creo que la explico bastante bien, si teneis
alguna duda escribirme al E-mail.
ENLACE: 

Que les vaya bien bonito...

Cejilla en el Primer traste

Posición de los dedos para que os sea más fácil,
los nombro con la inicial para no liaros con los números de arpegiar.
                        [ch]G      [ch]Dadd9[/ch]    MIm7[/ch]  SOL/F#
Dedo 1-> Indice       e ---       ---       ---    ---
Dedo 2-> Anular       B -C-       -C-       -C-    -C-
Dedo 3-> Corazón      G ---       -A-       ---    ---
Dedo 4-> Meñique      D ---       ---       -A-    ---
->                    A ---       ---       -I-    ---
->                    E -A-       -I-       ---    -I-


INTRO y base de la canción:

(--------SOL--------¬)(------REadd9------¬)(---------Mim7------>
----------------------------------------------------------------
----3----3----3----3------3----3----3----3-----3----3----3----3-
--0----0----0----0------2----2----2----2-----0----0----0----0---
----------------------------------------------------------------
----------------------------------------------------------------
-3-3--3-3--3-3--3-3----2-2--2-2--2-2--2-2---0-0--0-0--0-0--0-0--

>--------------¬)SOL/F#
-----------------------
----3----3----3----3---
--0----0----0----0-----
-----------------------
-----------------------
-0-0--0-0--0-0--2-2----


[ch]G[/ch]                         [ch]Dadd9[/ch]
Da igual lo que haya pasado ya
                                 [ch]Em7[/ch]
También me da igual lo que llegara

Lo mismo me importan el bien y el mal

O lo que diga la gente
[ch]G[/ch]                       [ch]Dadd9[/ch]
Llegar primero, llegar detrás
                        [ch]Em7[/ch]
Los que no aman este lugar

Los que hacen del miedo su cualidad

Inmediatamente A [ch]E[/ch] me da                         ----------------3--
[ch]G[/ch]                                               --------3----------
Me da me da, me da me da lo mismo                 ----0-------0------
[ch]Dadd9                          [ch]G[/ch]   SOL/F# SOL[/ch]->-------------------
Me da me da, me da me da lo mismo                 -------------------
                                                  --3---3---3---3----
[ch]G[/ch]                             [ch]Dadd9[/ch]
Me da igual si algunos me ven llorar
                       [ch]Em7[/ch]
Si no respetan mi libertad

Estar por el mundo en cualquier lugar

Sin conocer a la gente
[ch]G[/ch]                             [ch]Dadd9[/ch]
Da igual amar al que no hay que amar
                              [ch]Em7[/ch]
Da igual ser miles si hay soledad

Si rompes las normas para buscar

Inmediatamente a mi me da
[ch]Cadd9[/ch]
-----------------------------------
-------3-------3--------3-------3--
---0-------0--------0-------0------
-----------------------------------
-3---3---3---3----3---3---3---3----
-----------------------------------
Me da me da, me da me da lo mismo
[ch]D[/ch]
-----------------------------------
-------3-------3--------3-------3--
---0-------0--------0-------0------
-----------------------------------
-5---5---5---5----5---5---5---5----
-----------------------------------
Me da me da, me da me da lo mismo

PUENTE:
(--------SOL-----------¬)(SOL/F#) (---------SOL--------¬)(SOL/F#)
------------------------------------------------------------------
-------3-------3-------3-------3--------3-------3-------3------3--
---0-------0-------0-------0-------0-------0-------0-------0------
------------------------------------------------------------------
------------------------------------------------------------------
-3---3---3---3---3---3---2---2---3---3---3---3---3---3---2---2----

                                                  ----------------3--
[ch]G[/ch]                                               --------3----------
Me da me da, me da me da lo mismo                 ----0-------0------
[ch]Dadd9                          [ch]G[/ch]   SOL/F# SOL[/ch]->-------------------
Me da me da, me da me da lo mismo                 -------------------
                                                  --3---3---3---3----


Esta parte se toca rasgueando en vez de arpegiando...

[ch]Cadd9[/ch]
Lo que me importa es el presente y la sinceridad
[ch]D[/ch]
La sencillez de los niños al mirar al mar
[ch]Em                                      SOL[/ch]
Y lo que siento cuando veo que eres de verdad
[ch]Cadd9[/ch]
Como me importan esas cosas que me hacen soñar
[ch]D[/ch]
Como me importan mis amigos cuando ya no están
Mim                                    Mimadd11 024000  Mim
Como me importa que te quedes a mi lado más
[ch]Cadd9[/ch]
Me importa todo lo que he dado y lo que tú me das
[ch]D[/ch]
Me importa el mundo si puedo vivir un día más
Mim                                      MIsus4 002200
Me importan tantas cosas pero todo lo de más
[ch]Cadd9[/ch]
Me da me da, me da me da lo mismo
[ch]D[/ch]
Me da me da, me da me da lo mismo

A partir de aquí todo arpegios, despues del puente
es repetir el principio al el final...

PUENTE:
(--------SOL-----------¬)(SOL/F#) (---------SOL--------¬)(SOL/F#)
------------------------------------------------------------------
-------3-------3-------3-------3--------3-------3-------3------3--
---0-------0-------0-------0-------0-------0-------0-------0------
------------------------------------------------------------------
------------------------------------------------------------------
-3---3---3---3---3---3---2---2---3---3---3---3---3---3---2---2----


FINAL:
(--------SOL--------¬)(------REadd9-------¬)(---------Mim7----->
----------------------------------------------------------------
----3----3----3----3------3----3----3----3-----3----3----3----3-
--0----0----0----0------2----2----2----2-----0----0----0----0---
----------------------------------------------------------------
----------------------------------------------------------------
-3-3--3-3--3-3--3-3----2-2--2-2--2-2--2-2---0-0--0-0--0-0--0-0--
   Me da me da,           Me da me da,
me da me da lo mismo  me da me da lo mismo

>--------------¬)SOL/F#
-----------------------
----3----3----3----3---
--0----0----0----0-----
-----------------------
-----------------------
-0-0--0-0--0-0--2-2----

(--------SOL--------¬)(------REadd9-------¬)(---------Mim7----->
----------------------------------------------------------------
----3----3----3----3------3----3----3----3-----3----3----3----3-
--0----0----0----0------2----2----2----2-----0----0----0----0---
----------------------------------------------------------------
----------------------------------------------------------------
-3-3--3-3--3-3--3-3----2-2--2-2--2-2--2-2---0-0--0-0--0-0--0-0--

>--------------¬)SOL/F#
-----------------------
----3----3----3----3---
--0----0----0----0-----
-----------------------
-----------------------
-0-0--0-0--0-0--2-2--3->FIN
 
 
David Otero (el Pescao) - Me Da Lo Mismo :: indexed at Ultimate Guitar.
Me Da Lo Mismo tabs @ 911Tabs

Quick tip, so you can enjoy Me Da Lo Mismo even more:

You might want to transpose the song if it is too high or too low for you to sing. Just click the desired option while playing a song and all the chords will automatically be transponded into a new key.

Show us your talent, perform Me Da Lo Mismo!

Here you can post a video or audio performance. Tell me more ...
Where can we find your performance? Tell me more ...
Your comment:
Please, log in to post your performance.