Artists by letter: A B C D E F G H I J K L M N O P Q R S T U V W X Y Z 0-9

 
La Luz Oscura Del Mar
____ acordes ____________
|                       |
| Am:     002210        |
| F:      133211        |
| C:      032010        |
| G:      355433        |
| Em:     022000        |
|_______________________|


[cejilla en 3er traste]
[capo on 3rd fret]


[intro (x2)]:

    Am              F               C
E-||---------------|---------------|---------------|---------------|
B-||----1----1-----|----1----1-----|---1-----1-----|---1-----1-----|
G-||---2----2---2-0|---2----2---2-0|--0-----0---0--|--0-----0---0--|
D-||---------------|---------------|--------------3|--------------3|
A-||0----0---------|3----3---------|3----3---------|3----3---------|
E-||---------------|---------------|---------------|---------------|


Am         F                            C
  Mandé susurros que hay llegado a tu puerta
Am              F                     C
  Abre bien los ojos que la noche es para ti
Am                   F                        C
  Da la vuelta a tu vida que ha empezado la fiesta

F          G
  Rechazo de madrugada
C           F
  Dormimos juntos de sol a sol
F            G
  Me cuelgo de tu mirada
C                                Em
  La noche se ha disfrazado de amor


C                         Em
  Despiértame si no me engañas
      Am                         G F
  Si nunca te has manchado el corazón
C                         Em
  Despiértame si te hago falta
         Am                    G  F
  Si me haces falta te despierto yo


[riff 1 (x2)]:

    Am              F               C
E-||-------1-0-1-0-|--------1-0-1-0|---------------|---------------|
B-||---------------|---------------|1--------------|---------------|
G-||---------------|---------------|---------------|---------------|
D-||---------------|---------------|---------------|---------------|
A-||---------------|---------------|---------------|---------------|
E-||---------------|---------------|---------------|---------------|


Am            F                  C
  Derribo el muro que sujeta la bestia
Am            F                       C
  La dejo entrar para que juegue dentro de mí
Am               F                    C
  Dormir es más fácil cuando ya no molesta


F          G
  Rechazo de madrugada
C           F
  Dormimos juntos de sol a sol
F            G
  Me cuelgo de tu mirada
C                                Em
  La noche se ha disfrazado de amor

C                         Em
  Despiértame si no me engañas
      Am                         G F
  Si nunca te has manchado el corazón
C                         Em
  Despiértame si te hago falta
         Am                    G  F
  Si me haces falta te despierto yo


                      Am  F                 C
  Tu voz azul está aquí,   solo me queda mirarte
                      Am  F                             C
  La luz oscura del mar    me ha hecho pensar tanto en ti


(para Banuska, si es que alguna vez se entera de que
esta tablatura es para ella...)


###------------------------------###
### Tablatura de: Enrique Moraño ###
### Sevilla [Spain]     SEP-2010 ###
###      [email protected]     ###
###------------------------------###
 
 
David Otero (el Pescao) - La Luz Oscura Del Mar :: indexed at Ultimate Guitar.
La Luz Oscura Del Mar tabs @ 911Tabs

Quick tip, so you can enjoy La Luz Oscura Del Mar even more:

If you spend just 10 seconds to register, you will be able to comment on all the chords and tabs and rate them. You will as well be able to comment on videos of your fellow guitarists and give them ratings from 1 to 5 ... And - of course - you can share your own videos with them and see what they think of you. :)
Click here to join us!

Show us your talent, perform La Luz Oscura Del Mar!

Here you can post a video or audio performance. Tell me more ...
Where can we find your performance? Tell me more ...
Your comment:
Please, log in to post your performance.