Artists by letter: A B C D E F G H I J K L M N O P Q R S T U V W X Y Z 0-9

 
Pair Of Shoes
my finger-style rendition of a great guitar song, play around with it and have some fun

David Myles; Pair of shoes:

Capo 5


intro:

         am          d           g          c
e|-------------------------------------------------------|
B|-----0-1-------1-------3-------0-------0---1-------1---|
G|-0-1-------2-------2-------2-------0-----------0-------|
D|---------2-------2---0-------0---0-------0---2-------2-|
A|-------0-----0-----------------------------3-----3-----|
E|-------------------2-----2-----3-----3-----------------|

   g           d           g
e|---------------------------------------|
B|-3---0-----------0-----------0---------|
G|---------0---2-------2---0-------0---0-|
D|---0-------0---0-------0---0-------0---|
A|---------------------------------------|
E|-3-----3-----2-----2-----3-----3-----3-|


verse:

         am          d           g
e|---------------------------------------------|
B|-----0-1-------1-------3-------0-------0---0-|
G|-0-1-------2-------2-------2-------0---------| 2x
D|---------2-------2---0-------0---0-------0---|     
A|-------0-----0-------------------------------|
E|-------------------2-----2-----3-----3-----3-|

         
         am          d           g            em
e|-------------------------------------------------------|
B|-----0-1-------1-------3-------0-------0-------0-------|
G|-0-1-------2-------2-------2-------0-------0-------0---|
D|---------2-------2---0-------0---0-------0---2-------2-|
A|-------0-----0-----------------------------------------|
E|-------------------2-----2-----3-----3-----0-----0-----|

  am           d           g
e|---------------------------------------|
B|-1-------1-------3-----------0---------|
G|-----2-------2-------2---0-------0---0-|
D|---2-------2---0-------0---0-------0---|
A|-0-----0-------------------------------|
E|-------------2-----2-----3-----3-----3-|

Chorus:

         c         d             g  
e|---3-2-0---------------------------------------|
B|---------3---1---3-------3-----0-------0-----0-|
G|-0-------------------2-------2-----0-------0---|
D|---------------2---0-------0-----0-------0-----|   2x    
A|-------3---3-----------------------------------|
E|-----------------2-----2-------3-----3-------3-|


         c         d             g            am       em
e|---3-2-0-------------------------------------------------------------|
B|-0-------3---1---3-------3-----0-----0-----0-------------------------|
G|---------------------2-------2-----0-----0-----2---0---0-------0-----|
D|---------------2---0-------0-----0-----0-----2-------------2-------2-|     
A|-------3---3-----------------------------------------2---2-------2---|
E|-----------------2-----2-------3-----3-----0-----0-----0-----0-------|

   c             d            g
e|---------------------------------------------|
B|-1-------1---------3-------------0-----------|
G|-----0-------0-2-------2p0---0-------0-----0-|
D|---2-------2-----0-------0-----0-------0-----|     
A|-3-----3-------------------------------------|
E|---------------2-----2-------3-----3-------3-|
 
 
 
David Myles - Pair Of Shoes :: indexed at Ultimate Guitar.
Pair Of Shoes tabs @ 911Tabs

Quick tip, so you can enjoy Pair Of Shoes even more:

If you don't really know how to deal with "Absus4" chord and his equally confusing brothers, just put the mouse cursor over them and you will be shown a helpful chord diagram.

Show us your talent, perform Pair Of Shoes!

Here you can post a video or audio performance. Tell me more ...
Where can we find your performance? Tell me more ...
Your comment:
Please, log in to post your performance.