Artists by letter: A B C D E F G H I J K L M N O P Q R S T U V W X Y Z 0-9

 
Blacklight
Artist: David Lee Roth
Song: Blacklight
Album: DLR Band
Year: 1998
Tuning: Standard


[Intro]

e|--------------------------------------------------------------|
B|--------------------------------------------------------------|
G|--------------------------------------------------------------|
D|--------2p0-----------2p0-----2----2----2---------------------|
A|------------2-------------2------------------2-5p2-5p2-6/7----|
E|-0--0---------0---0---------0---3----4----5-------------------|        

e|--------------------------------------------------------------|
B|--------------------------------------------------------------|
G|--------------------------------------------------------------|
D|--------2p0-----------2p0-------------------------------------|
A|------------2-------------2---------------------0-5p0-5p0-----|
E|-0--0---------0---0---------0-3-3-3-4-4-4-5-5-5-----------7\--|       


[Verse]

e|--------------------------------------------------------------|
B|--------------------------------------------------------------|
G|--------------------------------------------------------------|
D|------------------------------2----2----2---------------------|
A|-2--2-----------------------------------------2-5p2-5p2-6/7---|
E|-0--0---------------------------3----4----5-------------------|

e|--------------------------------------------------------------|
B|--------------------------------------------------------------|
G|--------------------------------------------------------------|
D|--------------------------------------------------------------|
A|-2--2-------------------------------------------0-5p0-5p0-----|
E|-0--0-------------------------3-3-3-4-4-4-5-5-5-----------7\--|


[Pre-Chorus]

e|------------------------------------------------------------------|
B|-4\3/4\3/4---4\3/4\3/4--4/5-----4\3/4\3/4--4\3/4\3/4---2--3-------|
G|-4\3/4\3/4---4\3/4\3/4--4/5-----4\3/4\3/4--4\3/4\3/4---2--3-------|
D|-4\3/4\3/4---4\3/4\3/4--4/5-----4\3/4\3/4--4\3/4\3/4---2--3-------|
A|------------------------------------------------------------------|
E|------------------------------------------------------------------|

e|---------------------------------------------------|
B|-4\3/4\3/4---4\3/4\3/4--4/5------------------------|
G|-4\3/4\3/4---4\3/4\3/4--4/5------------------------|
D|-4\3/4\3/4---4\3/4\3/4--4/5-----------------1-2----|
A|--------------------------------2--3--4--5---------|
E|---------------------------------------------------|


[Chorus]

e|------------------------------------------------------|
B|------------------------------------------------------|
G|------------------------------------------------------|
D|-2--2---2p0-----2--2----2p0-----7------5--------------|
A|-2--2-------2---2--2--------2---7------5--------------|
E|-0--0--0-----0--0--0--0-------0-5------3--------------|




[PreChorus]

e|---------------------------------------------------------------|
B|-4\3/4\3/4---4\3/4\3/4--4/5-----4\3/4\3/4--4\3/4\---2--3-------|
G|-4\3/4\3/4---4\3/4\3/4--4/5-----4\3/4\3/4--4\3/4\---2--3-------|
D|-4\3/4\3/4---4\3/4\3/4--4/5-----4\3/4\3/4--4\3/4\---2--3-------|
A|---------------------------------------------------------------|
E|---------------------------------------------------------------|

e|---------------------------------------------------|
B|-4\3/4\3/4---4\3/4\3/4--4/5------------------------|
G|-4\3/4\3/4---4\3/4\3/4--4/5------------------------|
D|-4\3/4\3/4---4\3/4\3/4--4/5-----------------1-2----|
A|--------------------------------2--3--4--5---------|
E|---------------------------------------------------|


[Chorus]

e|------------------------------------------------------|
B|------------------------------------------------------|
G|------------------------------------------------------|
D|-2--2---2p0-----2--2----2p0-----7------5--------------|
A|-2--2-------2---2--2--------2---7------5--------------|
E|-0--0--0-----0--0--0--0-------0-5------3--------------|


[Bridge]

Use a killswitch effect to make this part sound as it sounds.
You might need to use pull offs and hammer ons, if you have a killswith on your guitar
and not as a pedal. I'm sure you know what to do here when you've got a killswitch :)

e|-------------------------------|
B|-2-0-2-0-2-5-2-0-2-0-0-0-0-----|
G|-2-0-2-0-2-5-2-0-2-0-0-0-0-----|
D|-------------------------------|
A|-------------------------------|
E|-------------------------------|

The squeaking sound is produced by sliding with the finger back and forth 
on the low e string, 


[Outro] 

e|-------------------------|------------------------------|
B|-------------------------|------------------------------|
G|-12b14--9----------------|--12b14-9------12b14--14br12--|
D|-----------9-------------|-----------11-----------------|
A|--------------12--10~----|------------------------------|
E|-------------------------|------------------------------|


************************************
| h   Hammer-on
| p   Pull-off
| r   Release
| b   Bend
| br  Bend release
| /   Slide up
| \   Slide down
| ~   Vibrato
************************************
 
 
David Lee Roth - Blacklight :: indexed at Ultimate Guitar.
Blacklight tabs @ 911Tabs

About the artist behind Blacklight:

David Lee Roth (sometimes referred to as "Diamond Dave") (born October 10, 1954, Bloomington, Indiana) is an American rock vocalist, songwriter, actor, author, and former radio personality, best known as the lead singer for Van Halen. After leaving Van Halen, Roth started his own career as a solo artist. His early albums were well received, but starting in the early 1990s, subsequent releases fared successively worse as popular musical tastes changed and Roth's band underwent numerous personnel changes.

Roth has re-united with Van Halen, and the group is currently touring North America. In 2008, an album and further worldwide touring are proposed to follow.[1]

Indexed at Wikipedia.

Show us your talent, perform Blacklight!

Here you can post a video or audio performance. Tell me more ...
Where can we find your performance? Tell me more ...
Your comment:
Please, log in to post your performance.