Artists by letter: A B C D E F G H I J K L M N O P Q R S T U V W X Y Z 0-9

 
Whos Singing Now
David Gray - Who's Singing Now

Beautiful song from Disc 2 of Foundling (2010).
Accents indicate the main melody. Feel free to message me with any corrections or suggestions!


[Intro]

         >     > >   > >     > > > >         >     > >   > >     > > > > 
   G     Gmaj7       G       C         G     Gmaj7       G       C
e|-----3-----3-----|-----------------|-----3-----3-----|-----------------|
B|---------0-------|---------------0-|---------0-------|-----------------|
G|-------2-----0---|-------0---0-2---|-------2-----0---|-------0---0-2-0-|
D|---------------2-|-0---0-----------|---------------2-|-0---0-----------|  x2
A|---2-------------|---2-----3-------|---2-------------|---2-----3-------|
E|-3---------------|-----------------|-3---------------|-----------------|

The same pattern repeats through the verses - there’s no real chorus.


[Verse 1]

   G     Gmaj7          G         C               G     Gmaj7          G        C
e|-----3-----3--------|-------------------------|-----3-----3--------|--------------------------|
B|---------0----------|---------------------0---|---------0----------|--------------------------|
G|-------2-----0------|---------0-----0-2-------|-------2-----0------|--------0----0----2---0---|
D|------------------2-|-0-----0-----------------|------------------2-|-0----0-------------------|
A|---2----------------|-----2-----3-------------|---2----------------|----2-----3---------------|
E|-3------------------|-------------------------|-3------------------|--------------------------|
         Blind-fold and walking   all o-ver town        Hear -ing ’em  talking, up hill and down

   G     Gmaj7         G         C                   G     Gmaj7        G          C
e|-----3-----3-------|-----------------------------|-----3-----3------|------------------------------|
B|---------0---------|-------------------------0---|---------0--------|------------------------------|
G|-------2-----0-----|---------0-------0---2-------|-------2-----0----|----------0-------0---2---0---|
D|-----------------2-|-0-----0---------------------|----------------2-|-0------0---------------------|
A|---2---------------|-----2-----3-----------------|---2--------------|------2-----3-----------------|
E|-3-----------------|-----------------------------|-3----------------|------------------------------|
         Rest  for the wicked,   flesh for the crowd       Bird  in the thicket    Who’s singing now?

   G     Gmaj7       G       C                  G     Gmaj7       G       C
e|-----3-----3-----|--------------------------|-----3-----3-----|-----------------|
B|---------0-------|-----------------------0--|---------0-------|-----------------|
G|-------2-----0---|-------0-------0---2------|-------2-----0---|-------0---0-2-0-|
D|---------------2-|-0---0--------------------|---------------2-|-0---0-----------|
A|---2-------------|---2-----3----------------|---2-------------|---2-----3-------|
E|-3---------------|--------------------------|-3---------------|-----------------|
                             Who’s singing now?


[Verse 2]

   G     Gmaj7        G        C                 G     Gmaj7        G        C
e|-----3-----3------|--------------------------|-----3-----3------|--------------------------|
B|---------0--------|----------------------0---|---------0--------|--------------------------|
G|-------2-----0----|--------0------0--2-------|-------2-----0----|--------0------0--2---0---|
D|----------------2-|-0----0-------------------|----------------2-|-0----0-------------------|
A|---2--------------|----2-----3---------------|---2--------------|----2-----3---------------|
E|-3----------------|--------------------------|-3----------------|--------------------------|
         Heads in the ether,   feet in the clay        Hands on the lever    changes the day

   G     Gmaj7        G           C                 G     Gmaj7         G         C
e|-----3-----3------|-----------------------------|-----3-----3-------|-----------------------------|
B|---------0--------|-------------------------0---|---------0---------|-----------------------------|
G|-------2-----0----|-----------0------0--2-------|-------2-----0-----|---------0-------0---2---0---|
D|----------------2-|-0-------0-------------------|-----------------2-|-0-----0---------------------|
A|---2--------------|-------2-----3---------------|---2---------------|-----2-----3-----------------|
E|-3----------------|-----------------------------|-3-----------------|-----------------------------|
         Slap  on the cheek and   kiss on the mouth       Gone  for the weekend,  who’s singing now?

   G     Gmaj7       G       C                  G     Gmaj7       G       C
e|-----3-----3-----|--------------------------|-----3-----3-----|-------------------------|
B|---------0-------|-----------------------0--|---------0-------|-------------------------|
G|-------2-----0---|-------0-------0---2------|-------2-----0---|-------0-------0---2---0-|
D|---------------2-|-0---0--------------------|---------------2-|-0---0-------------------|
A|---2-------------|---2-----3----------------|---2-------------|---2-----3---------------|
E|-3---------------|--------------------------|-3---------------|-------------------------|
                             Who’s singing now?                           Who’s singing now?

   G     Gmaj7       G       C                  G     Gmaj7       G       C
e|-----3-----3-----|--------------------------|-----3-----3-----|-----------------|
B|---------0-------|-----------------------0--|---------0-------|-----------------|
G|-------2-----0---|-------0-------0---2------|-------2-----0---|-------0---0-2-0-|
D|---------------2-|-0---0--------------------|---------------2-|-0---0-----------|
A|---2-------------|---2-----3----------------|---2-------------|---2-----3-------|
E|-3---------------|--------------------------|-3---------------|-----------------|
                             Who’s singing now?


[Verse 3]

   G     Gmaj7         G       C                G     Gmaj7       G           C
e|-----3-----3-------|------------------------|-----3-----3-----|-----------------------------|
B|---------0---------|--------------------0---|---------0-------|-----------------------------|
G|-------2-----0-----|-------0-----0--2-------|-------2-----0---|-----------0-------0-2---0---|
D|-----------------2-|-0---0------------------|---------------2-|-0-------0-------------------|
A|---2---------------|---2-----3--------------|---2-------------|-------2-----3---------------|
E|-3-----------------|------------------------|-3---------------|-----------------------------|
         Me    and my  baby    out on the tiles       God " awful teeth but   beaut-i-ful smiles

   G     Gmaj7        G        C                 G     Gmaj7         G         C
e|-----3-----3------|--------------------------|-----3-----3-------|-----------------------------|
B|---------0--------|----------------------0---|---------0---------|-----------------------------|
G|-------2-----0----|--------0------0--2-------|-------2-----0-----|---------0-------0---2---0---|
D|----------------2-|-0----0-------------------|-----------------2-|-0-----0---------------------|
A|---2--------------|----2-----3---------------|---2---------------|-----2-----3-----------------|
E|-3----------------|--------------------------|-3-----------------|-----------------------------|
         Face  in the window,  back of our house       Hey   ho, my  hearties, who’s singing now?

   G     Gmaj7       G       C                  G     Gmaj7       G       C
e|-----3-----3-----|--------------------------|-----3-----3-----|-------------------------|
B|---------0-------|-----------------------0--|---------0-------|-------------------------|
G|-------2-----0---|-------0-------0---2------|-------2-----0---|-------0-------0---2---0-|
D|---------------2-|-0---0--------------------|---------------2-|-0---0-------------------|
A|---2-------------|---2-----3----------------|---2-------------|---2-----3---------------|
E|-3---------------|--------------------------|-3---------------|-------------------------|
                             Who’s singing now?                           Who’s singing now?

   G     Gmaj7       G       C                  G     Gmaj7       G       C 
e|-----3-----3-----|--------------------------|-----3-----3-----|-----------------|
B|---------0-------|-----------------------0--|---------0-------|-----------------|
G|-------2-----0---|-------0-------0---2------|-------2-----0---|-------0---0-2-0-|
D|---------------2-|-0---0--------------------|---------------2-|-0---0-----------|
A|---2-------------|---2-----3----------------|---2-------------|---2-----3-------|
E|-3---------------|--------------------------|-3---------------|-----------------|
                             Who’s singing now?


[Bridge]

   Am                                                  D
e|-------------------------|-------------------------|--------2----------2-----|
B|--------1----------1---1-|--------1----------1---1-|--------3----------3---3-|
G|--------2----------2---2-|--------2----------2---2-|--------2----------2---2-|
D|--------2----------2-2-2-|--------2----------2-2-2-|-0----------0--------0---|
A|-0----------0------------|-0----------0------------|-------------------------|
E|-------------------------|-------------------------|-------------------------|
   Certainly, certainly      certainly, certainly      Certainly, certainly

   D7                        G     Gmaj7       G       C
e|--------2----------2-----|-----3-----3-----|-----------------|
B|--------1----------1---1-|---------0-------|-----------------|
G|--------2----------2---2-|-------2-----0---|-------0---0-2-0-|
D|-0---------0---------0---|---------------2-|-0---0-----------|
A|-------------------------|---2-------------|---2-----3-------|
E|-------------------------|-3---------------|-----------------|
   Certainly crossed my  mind...

   Am                                                  D
e|-------------------------|-------------------------|--------2----------2-----|
B|--------1----------1---1-|--------1----------1---1-|--------3----------3---3-|
G|--------2----------2---2-|--------2----------2---2-|--------2----------2---2-|
D|--------2----------2-2-2-|--------2----------2-2-2-|-0----------0--------0---|
A|-0----------0------------|-0----------0------------|-------------------------|
E|-------------------------|-------------------------|-------------------------|
   Certainly, certainly      certainly, certainly      Certainly, certainly

   D7                        G     Gmaj7       G       C
e|--------2----------2-----|-----3-----3-----|-----------------|
B|--------1----------1---1-|---------0-------|-----------------|
G|--------2----------2---2-|-------2-----0---|-------0---0-2-0-|
D|-0---------0---------0---|---------------2-|-0---0-----------|
A|-------------------------|---2-------------|---2-----3-------|
E|-------------------------|-3---------------|-----------------|
   Certainly crossed my  mind...


[Verse 4]

   G     Gmaj7          G        C               G     Gmaj7         G         C
e|-----3-----3--------|------------------------|-----3-----3-------|-----------------------------|
B|---------0----------|--------------------0---|---------0---------|-----------------------------|
G|-------2-----0------|-------0-----0--2-------|-------2-----0-----|---------0-------0---2---0---|
D|------------------2-|-0---0------------------|-----------------2-|-0-----0---------------------|
A|---2----------------|---2------3-------------|---2---------------|-----2-----3-----------------|
E|-3------------------|------------------------|-3-----------------|-----------------------------|
         Drag  this old body  on up to the mount       Hey   ho, my  hearties, who’s singing now?

   G     Gmaj7       G       C                  G     Gmaj7       G       C
e|-----3-----3-----|--------------------------|-----3-----3-----|-------------------------|
B|---------0-------|-----------------------0--|---------0-------|-------------------------|
G|-------2-----0---|-------0-------0---2------|-------2-----0---|-------0-------0---2---0-|
D|---------------2-|-0---0--------------------|---------------2-|-0---0-------------------|
A|---2-------------|---2-----3----------------|---2-------------|---2-----3---------------|
E|-3---------------|--------------------------|-3---------------|-------------------------|
                             Who’s singing now?                           Who’s singing now?

   G     Gmaj7       G       C                  G
e|-----3-----3-----|--------------------------|------3----------|
B|---------0-------|--------------------------|-----0-----------|
G|-------2-----0---|-------0-------0---2---0--|----0------------|
D|---------------2-|-0---0--------------------|---0-------------|
A|---2-------------|---2-----3----------------|--2--------------|
E|-3---------------|--------------------------|-3---------------|
                             Who’s singing now?

Lyrics:

Blindfold and walking all over town
Hearing ‘em talking, up hill and down
Rest for the wicked, flesh for the crowd
Bird in the thicket, who’s singing now?
Who’s singing now?

Heads in the ether, feet in the clay
Hands on the lever changes the day
Slap on the cheek and kiss on the mouth
Gone for the weekend, who’s singing now?
Who’s singing now? Who’s singing now?
Who’s singing now?

Me and my baby out on the tiles
Godawful teeth but beautiful smiles
Face in the window, back of our house
Hey ho, my hearties, who’s singing now?
Who’s singing now? Who’s singing now?
Who’s singing now?

Certainly, certainly, certainly, certainly
Certainly, certainly, certainly crossed my mind...

Certainly, certainly, certainly, certainly
Certainly, certainly, certainly crossed my mind...

Drag this old body on up to the mount
Hey ho, my hearties, who’s singing now?
Who’s singing now? Who’s singing now?
Who’s singing now?



***********************

|>      Accented note

***********************
 
 
David Gray - Whos Singing Now :: indexed at Ultimate Guitar.
Whos Singing Now tabs @ 911Tabs

Quick tip, so you can enjoy Whos Singing Now even more:

YourChords.com Guitar Chords and Tabs Archive is currently indexing over 240'000 songs from 21'000+ different artists. And new chords just keep on coming in, so you will surely never run out of them.

Show us your talent, perform Whos Singing Now!

Here you can post a video or audio performance. Tell me more ...
Where can we find your performance? Tell me more ...
Your comment:
Please, log in to post your performance.