Artists by letter: A B C D E F G H I J K L M N O P Q R S T U V W X Y Z 0-9

 
The Disco Strangler
-----------------------------------------------------------------------------
                       The Disco Strangler - The Eagles (GUITAR)
                       
-----------------------------------------------------------------------------
Tabbed by: Scotto10

Tuning: Standard

=============================================================================

Guitar 1



Q    S S S S E  E  Q       S S S S E  E  H         
E||-------|--------------------------|-------------------------|
B||-------|--------------------------|-------------------------|
G||-------|-------7-5-5-5-5--5-------|--7-5-5-5-5--5-----------|
D||-------|-------7-5-5-5-5--5-------|--7-5-5-5-5--5-----------|
A||-------|--------------------------|-------------------------|
E||-------|--------------------------|-------------------------|

Q    S S S S E  E  Q       S S S S E  E  H           Q    S S S S E  E  Q     
--------------------------|-------------------------|--------------------------|
--------------------------|-------------------------|--------------------------|
-------7-5-5-5-5--5-------|--7-5-5-5-5--5-----------|-------7-5-5-5-5--5-------|
-------7-5-5-5-5--5-------|--7-5-5-5-5--5-----------|-------7-5-5-5-5--5-------|
--------------------------|-------------------------|--------------------------|
--------------------------|-------------------------|--------------------------|

S S S S E  E  H           Q    S S S S E  E  Q       S S S S E  E  H         
-------------------------|--------------------------|-------------------------|
-------------------------|--------------------------|-------------------------|
--7-5-5-5-5--5-----------|-------7-5-5-5-5--5-------|--7-5-5-5-5--5-----------|
--7-5-5-5-5--5-----------|-------7-5-5-5-5--5-------|--7-5-5-5-5--5-----------|
-------------------------|--------------------------|-------------------------|
-------------------------|--------------------------|-------------------------|

Q    S S S S E  E  Q       S S S S E  E  H           Q    S S S S E  E  Q     
--------------------------|-------------------------|--------------------------|
--------------------------|-------------------------|--------------------------|
-------7-5-5-5-5--5-------|--7-5-5-5-5--5-----------|-------7-5-5-5-5--5-------|
-------7-5-5-5-5--5-------|--7-5-5-5-5--5-----------|-------7-5-5-5-5--5-------|
--------------------------|-------------------------|--------------------------|
--------------------------|-------------------------|--------------------------|

S S S S E  E  H           Q    S S S S E  E  Q       S S S S E  E  H         
-------------------------|--------------------------|-------------------------|
-------------------------|--------------------------|-------------------------|
--7-5-5-5-5--5-----------|-------7-5-5-5-5--5-------|--7-5-5-5-5--5-----------|
--7-5-5-5-5--5-----------|-------7-5-5-5-5--5-------|--7-5-5-5-5--5-----------|
-------------------------|--------------------------|-------------------------|
-------------------------|--------------------------|-------------------------|

Q    S S S S E  E  Q       S S S S E  E  H           Q    S S S S E  E  Q     
--------------------------|-------------------------|--------------------------|
--------------------------|-------------------------|--------------------------|
-------7-5-5-5-5--5-------|--7-5-5-5-5--5-----------|-------7-5-5-5-5--5-------|
-------7-5-5-5-5--5-------|--7-5-5-5-5--5-----------|-------7-5-5-5-5--5-------|
--------------------------|-------------------------|--------------------------|
--------------------------|-------------------------|--------------------------|

S S S S E  E  H           Q    S S S S E  E  Q       S S S S E  E  H         
-------------------------|--------------------------|-------------------------|
-------------------------|--------------------------|-------------------------|
--7-5-5-5-5--5-----------|-------7-5-5-5-5--5-------|--7-5-5-5-5--5-----------|
--7-5-5-5-5--5-----------|-------7-5-5-5-5--5-------|--7-5-5-5-5--5-----------|
-------------------------|--------------------------|-------------------------|
-------------------------|--------------------------|-------------------------|

Q    S S S S E  E  Q       S S S S E  E  H           Q    S S S S E  E  Q     
--------------------------|-------------------------|--------------------------|
--------------------------|-------------------------|--------------------------|
-------7-5-5-5-5--5-------|--7-5-5-5-5--5-----------|-------7-5-5-5-5--5-------|
-------7-5-5-5-5--5-------|--7-5-5-5-5--5-----------|-------7-5-5-5-5--5-------|
--------------------------|-------------------------|--------------------------|
--------------------------|-------------------------|--------------------------|

S S S S E  E  H           Q    S S S S E  E  Q       S S S S E  E  H         
-------------------------|--------------------------|-------------------------|
-------------------------|--------------------------|-------------------------|
--7-5-5-5-5--5-----------|-------7-5-5-5-5--5-------|--7-5-5-5-5--5-----------|
--7-5-5-5-5--5-----------|-------7-5-5-5-5--5-------|--7-5-5-5-5--5-----------|
-------------------------|--------------------------|-------------------------|
-------------------------|--------------------------|-------------------------|

Q    S S S S E  E  Q       S S S S E  E  H           Q    S  S E  Q    Q     
--------------------------|-------------------------|---------------3---------|
--------------------------|-------------------------|--3----5p-3----3---------|
-------7-5-5-5-5--5-------|--7-5-5-5-5--5-----------|--4---------4------------|
-------7-5-5-5-5--5-------|--7-5-5-5-5--5-----------|--5----------------------|
--------------------------|-------------------------|-------------------------|
--------------------------|-------------------------|-------------------------|

H        H           Q    S S S S E  E  Q       S S S S E  E  H         
--1--------0--------|--------------------------|-------------------------|
--1--------1--------|--------------------------|-------------------------|
--2--------2--------|-------7-5-5-5-5--5-------|--7-5-5-5-5--5-----------|
--3--------2--------|-------7-5-5-5-5--5-------|--7-5-5-5-5--5-----------|
--3--------0--------|--------------------------|-------------------------|
--1-----------------|--------------------------|-------------------------|

Q    S S S S E  E  Q       S S S S E  E  H           Q    S S S S E  E  Q     
--------------------------|-------------------------|--------------------------|
--------------------------|-------------------------|--------------------------|
-------7-5-5-5-5--5-------|--7-5-5-5-5--5-----------|-------7-5-5-5-5--5-------|
-------7-5-5-5-5--5-------|--7-5-5-5-5--5-----------|-------7-5-5-5-5--5-------|
--------------------------|-------------------------|--------------------------|
--------------------------|-------------------------|--------------------------|

S S S S E  E  H           Q    S S S S E  E  Q       S S S S E  E  H         
-------------------------|--------------------------|-------------------------|
-------------------------|--------------------------|-------------------------|
--7-5-5-5-5--5-----------|-------7-5-5-5-5--5-------|--7-5-5-5-5--5-----------|
--7-5-5-5-5--5-----------|-------7-5-5-5-5--5-------|--7-5-5-5-5--5-----------|
-------------------------|--------------------------|-------------------------|
-------------------------|--------------------------|-------------------------|

Q    S S S S E  E  Q       S S S S E  E  H           Q    S S S S E  E  Q     
--------------------------|-------------------------|--------------------------|
--------------------------|-------------------------|--------------------------|
-------7-5-5-5-5--5-------|--7-5-5-5-5--5-----------|-------7-5-5-5-5--5-------|
-------7-5-5-5-5--5-------|--7-5-5-5-5--5-----------|-------7-5-5-5-5--5-------|
--------------------------|-------------------------|--------------------------|
--------------------------|-------------------------|--------------------------|

S S S S E  E  H           Q    S S S S E  E  Q       S S S S E  E  H         
-------------------------|--------------------------|-------------------------|
-------------------------|--------------------------|-------------------------|
--7-5-5-5-5--5-----------|-------7-5-5-5-5--5-------|--7-5-5-5-5--5-----------|
--7-5-5-5-5--5-----------|-------7-5-5-5-5--5-------|--7-5-5-5-5--5-----------|
-------------------------|--------------------------|-------------------------|
-------------------------|--------------------------|-------------------------|

Q    S S S S E  E  Q       S S S S E  E  H           Q    S S S S E  E  Q     
--------------------------|-------------------------|--------------------------|
--------------------------|-------------------------|--------------------------|
-------7-5-5-5-5--5-------|--7-5-5-5-5--5-----------|-------7-5-5-5-5--5-------|
-------7-5-5-5-5--5-------|--7-5-5-5-5--5-----------|-------7-5-5-5-5--5-------|
--------------------------|-------------------------|--------------------------|
--------------------------|-------------------------|--------------------------|

S S S S E  E  H           Q    S S S S E  E  Q       S S S S E  E  H         
-------------------------|--------------------------|-------------------------|
-------------------------|--------------------------|-------------------------|
--7-5-5-5-5--5-----------|-------7-5-5-5-5--5-------|--7-5-5-5-5--5-----------|
--7-5-5-5-5--5-----------|-------7-5-5-5-5--5-------|--7-5-5-5-5--5-----------|
-------------------------|--------------------------|-------------------------|
-------------------------|--------------------------|-------------------------|

Q    S  S E  Q    Q       H        H           Q    S S S S E  E  Q     
---------------3---------|--1--------0--------|--------------------------|
--3----5p-3----3---------|--1--------1--------|--------------------------|
--4---------4------------|--2--------2--------|-------7-5-5-5-5--5-------|
--5----------------------|--3--------2--------|-------7-5-5-5-5--5-------|
-------------------------|--3--------0--------|--------------------------|
-------------------------|--1-----------------|--------------------------|

S S S S E  E  H           Q    S S S S E  E  Q       S S S S E  E  H         
-------------------------|--------------------------|-------------------------|
-------------------------|--------------------------|-------------------------|
--7-5-5-5-5--5-----------|-------7-5-5-5-5--5-------|--7-5-5-5-5--5-----------|
--7-5-5-5-5--5-----------|-------7-5-5-5-5--5-------|--7-5-5-5-5--5-----------|
-------------------------|--------------------------|-------------------------|
-------------------------|--------------------------|-------------------------|

Q    S  S E  Q    Q       H        H           Q    S S S S E  E  Q     
---------------3---------|--1--------0--------|--------------------------|
--3----5p-3----3---------|--1--------1--------|--------------------------|
--4---------4------------|--2--------2--------|-------7-5-5-5-5--5-------|
--5----------------------|--3--------2--------|-------7-5-5-5-5--5-------|
-------------------------|--3--------0--------|--------------------------|
-------------------------|--1-----------------|--------------------------|

S S S S E  E  H           Q    S S S S E  E  Q       S S S S E  E  H         
-------------------------|--------------------------|-------------------------|
-------------------------|--------------------------|-------------------------|
--7-5-5-5-5--5-----------|-------7-5-5-5-5--5-------|--7-5-5-5-5--5-----------|
--7-5-5-5-5--5-----------|-------7-5-5-5-5--5-------|--7-5-5-5-5--5-----------|
-------------------------|--------------------------|-------------------------|
-------------------------|--------------------------|-------------------------|

Q    S S S S E  E  Q       S S S S E  E  H           Q    S S S S E  E  Q     
--------------------------|-------------------------|--------------------------|
--------------------------|-------------------------|--------------------------|
-------7-5-5-5-5--5-------|--7-5-5-5-5--5-----------|-------7-5-5-5-5--5-------|
-------7-5-5-5-5--5-------|--7-5-5-5-5--5-----------|-------7-5-5-5-5--5-------|
--------------------------|-------------------------|--------------------------|
--------------------------|-------------------------|--------------------------|

S S S S E  E  H           Q    S S S S E  E  Q       S S S S E  E  H         
-------------------------|--------------------------|-------------------------|
-------------------------|--------------------------|-------------------------|
--7-5-5-5-5--5-----------|-------7-5-5-5-5--5-------|--7-5-5-5-5--5-----------|
--7-5-5-5-5--5-----------|-------7-5-5-5-5--5-------|--7-5-5-5-5--5-----------|
-------------------------|--------------------------|-------------------------|
-------------------------|--------------------------|-------------------------|

Q    S S S S E  E  Q       S S S S E  E  H           Q    S S S S E  E  Q     
--------------------------|-------------------------|--------------------------|
--------------------------|-------------------------|--------------------------|
-------7-5-5-5-5--5-------|--7-5-5-5-5--5-----------|-------7-5-5-5-5--5-------|
-------7-5-5-5-5--5-------|--7-5-5-5-5--5-----------|-------7-5-5-5-5--5-------|
--------------------------|-------------------------|--------------------------|
--------------------------|-------------------------|--------------------------|

S S S S E  E  H           Q    S S S S E  E  Q       S S S S E  E  H         
-------------------------|--------------------------|-------------------------|
-------------------------|--------------------------|-------------------------|
--7-5-5-5-5--5-----------|-------7-5-5-5-5--5-------|--7-5-5-5-5--5-----------|
--7-5-5-5-5--5-----------|-------7-5-5-5-5--5-------|--7-5-5-5-5--5-----------|
-------------------------|--------------------------|-------------------------|
-------------------------|--------------------------|-------------------------|

Q    S S S S E  E  Q       S S S S E  E  H                      
--------------------------|-------------------------|-----------||
--------------------------|-------------------------|-----------||
-------7-5-5-5-5--5-------|--7-5-5-5-5--5-----------|-----------||
-------7-5-5-5-5--5-------|--7-5-5-5-5--5-----------|-----------||
--------------------------|-------------------------|-----------||
--------------------------|-------------------------|-----------||



============================================================================
============================================================================

Guitar 2



H        E  E  E  E   
E||-------|-------|-------|-------|-------|-------|-----------------------|
B||-------|-------|-------|-------|-------|-------|-----------------------|
G||-------|-------|-------|-------|-------|-------|-----------------------|
D||-------|-------|-------|-------|-------|-------|-----------------------|
A||-------|-------|-------|-------|-------|-------|--------------3--2--0--|
D||-------|-------|-------|-------|-------|-------|--------------3--2--0--|

H        E  E  E  E             H        E  E  E  E           
-------|-----------------------|-------|-----------------------|-------|
-------|-----------------------|-------|-----------------------|-------|
-------|-----------------------|-------|-----------------------|-------|
-------|-----------------------|-------|-----------------------|-------|
-------|--------------3--2--0--|-------|--------------3--2--0--|-------|
-------|--------------3--2--0--|-------|--------------3--2--0--|-------|

H        E  E  E  E             H        E  E  E  E           
-----------------------|-------|-----------------------|-------|
-----------------------|-------|-----------------------|-------|
-----------------------|-------|-----------------------|-------|
-----------------------|-------|-----------------------|-------|
--------------3--2--0--|-------|--------------3--2--0--|-------|
--------------3--2--0--|-------|--------------3--2--0--|-------|

H        E  E  E  E     H        Q    S S E     H        E  E  E  E   
-----------------------|-----------------------|-----------------------|
-----------------------|-----------------------|-----------------------|
-----------------------|-----------------------|-----------------------|
-----------------------|----------------x-x----|-----------------------|
--------------3--2--0--|----------------x-x-5--|--------------3--2--0--|
--------------3--2--0--|--------------------0--|--------------3--2--0--|

H        Q.     E     H        E  E  E  E     H        Q    S S E   
---------------------|-----------------------|-----------------------|
---------------------|-----------------------|-----------------------|
---------------------|-----------------------|-----------------------|
---------------------|-----------------------|----------------x-x----|
------------------5--|--------------3--2--0--|----------------x-x-5--|
------------------0--|--------------3--2--0--|--------------------0--|

H        E  E  E  E     H        Q.     E     H        E  E  E  E   
-----------------------|---------------------|-----------------------|
-----------------------|---------------------|-----------------------|
-----------------------|---------------------|-----------------------|
-----------------------|---------------------|-----------------------|
--------------3--2--0--|------------------5--|--------------3--2--0--|
--------------3--2--0--|------------------0--|--------------3--2--0--|

H        Q    S S E     H        E  E  E  E     H        Q.     E   
-----------------------|-----------------------|---------------------|
-----------------------|-----------------------|---------------------|
-----------------------|-----------------------|---------------------|
----------------x-x----|-----------------------|---------------------|
----------------x-x-5--|--------------3--2--0--|------------------5--|
--------------------0--|--------------3--2--0--|------------------0--|

H        E  E  E  E     W                   H        H         
-----------------------|-------------------|--------------------|
-----------------------|-------------------|--------------------|
-----------------------|-------------------|--------------------|
-----------------------|-------------------|-----------2--------|
--------------3--2--0--|--5----------------|--3--------0--------|
--------------3--2--0--|--5----------------|--3-----------------|

H        Q    S S E     H        E  E  E  E     H        Q.     E   
-----------------------|-----------------------|---------------------|
-----------------------|-----------------------|---------------------|
-----------------------|-----------------------|---------------------|
----------------x-x----|-----------------------|---------------------|
----------------x-x-5--|--------------3--2--0--|------------------5--|
--------------------0--|--------------3--2--0--|------------------0--|

H        E  E  E  E             H        E  E  E  E     H        Q    S S E   
-----------------------|-------|-----------------------|-----------------------|
-----------------------|-------|-----------------------|-----------------------|
-----------------------|-------|-----------------------|-----------------------|
-----------------------|-------|-----------------------|----------------x-x----|
--------------3--2--0--|-------|--------------3--2--0--|----------------x-x-5--|
--------------3--2--0--|-------|--------------3--2--0--|--------------------0--|

H        E  E  E  E     H        Q.     E     H        E  E  E  E   
-----------------------|---------------------|-----------------------|
-----------------------|---------------------|-----------------------|
-----------------------|---------------------|-----------------------|
-----------------------|---------------------|-----------------------|
--------------3--2--0--|------------------5--|--------------3--2--0--|
--------------3--2--0--|------------------0--|--------------3--2--0--|

H        Q    S S E     H        E  E  E  E     H        Q.     E   
-----------------------|-----------------------|---------------------|
-----------------------|-----------------------|---------------------|
-----------------------|-----------------------|---------------------|
----------------x-x----|-----------------------|---------------------|
----------------x-x-5--|--------------3--2--0--|------------------5--|
--------------------0--|--------------3--2--0--|------------------0--|

H        E  E  E  E     H        Q    S S E     H        E  E  E  E   
-----------------------|-----------------------|-----------------------|
-----------------------|-----------------------|-----------------------|
-----------------------|-----------------------|-----------------------|
-----------------------|----------------x-x----|-----------------------|
--------------3--2--0--|----------------x-x-5--|--------------3--2--0--|
--------------3--2--0--|--------------------0--|--------------3--2--0--|

H        Q.     E     H        E  E  E  E     H        Q    S S E   
---------------------|-----------------------|-----------------------|
---------------------|-----------------------|-----------------------|
---------------------|-----------------------|-----------------------|
---------------------|-----------------------|----------------x-x----|
------------------5--|--------------3--2--0--|----------------x-x-5--|
------------------0--|--------------3--2--0--|--------------------0--|

H        E  E  E  E     W                   H        H         
-----------------------|-------------------|--------------------|
-----------------------|-------------------|--------------------|
-----------------------|-------------------|--------------------|
-----------------------|-------------------|-----------2--------|
--------------3--2--0--|--5----------------|--3--------0--------|
--------------3--2--0--|--5----------------|--3-----------------|

H        Q    S S E     H        E  E  E  E     H        Q.     E   
-----------------------|-----------------------|---------------------|
-----------------------|-----------------------|---------------------|
-----------------------|-----------------------|---------------------|
----------------x-x----|-----------------------|---------------------|
----------------x-x-5--|--------------3--2--0--|------------------5--|
--------------------0--|--------------3--2--0--|------------------0--|

H        S S E  E  E     W                   H        H                     
------------------------|-------------------|--------------------|-----------|
------------------------|-------------------|--------------------|-----------|
-----------x-x----------|-------------------|--------------------|-----------|
-----------x-x----------|-------------------|-----------2--------|-----------|
---------------3--2--0--|--5----------------|--3--------0--------|-----------|
---------------3--2--0--|--5----------------|--3-----------------|-----------|

-------------------|-----------|-----------|-----------|-----------|-----------|
-------------------|-----------|-----------|-----------|-----------|-----------|
-------------------|-----------|-----------|-----------|-----------|-----------|
-------------------|-----------|-----------|-----------|-----------|-----------|
-------------------|-----------|-----------|-----------|-----------|-----------|
-------------------|-----------|-----------|-----------|-----------|-----------|

-----------|-----------|-----------|-----------|-----------|-----------|
-----------|-----------|-----------|-----------|-----------|-----------|
-----------|-----------|-----------|-----------|-----------|-----------|
-----------|-----------|-----------|-----------|-----------|-----------|
-----------|-----------|-----------|-----------|-----------|-----------|
-----------|-----------|-----------|-----------|-----------|-----------|

-----------|-----------|-----------|-----------|-----------|-----------||
-----------|-----------|-----------|-----------|-----------|-----------||
-----------|-----------|-----------|-----------|-----------|-----------||
-----------|-----------|-----------|-----------|-----------|-----------||
-----------|-----------|-----------|-----------|-----------|-----------||
-----------|-----------|-----------|-----------|-----------|-----------||



Duration Legend
---------------
W - whole
H - half
Q - quarter
E - 8th
S - 16th
T - 32nd
X - 64th
. - note dotted
|-n-|  - n-tuplets

Tablature Legend
----------------
L - tied note
x - dead note
g - grace note
(n) - ghost note
> - accentuded note
NH - natural harmonic
AH - artificial harmonic
TH - tapped harmonic
SH - semi harmonic
PH - pitch harmonic
h - hammer on
p - pull off
b - bend
br - bendRelease
pb - preBend
pbr - preBendRelease
brb - bendReleaseBend
\n/ - tremolo bar dip
\n - tremolo bar dive
-/n - tremolo bar Release up
/n\ - tremolo bar inverted dip
/n - tremolo bar return
-\n - tremolo bar Release down
S - shift slide
s - legato slide
/ -  slide into from below or out of upwards
\ -  slide into from above or out of downwards
~ - vibrato
W - wide vibrato
tr - trill
TP - tremolo picking
T - tapping
S - slap
P - pop
< - fade in
^ - brush up
v - brush down

 
 
Eagles - The Disco Strangler :: indexed at Ultimate Guitar.
The Disco Strangler tabs @ 911Tabs

About the artist behind The Disco Strangler:

The Eagles are an American rock band that was formed in Los Angeles, California, in the early 1970s. With five Number 1 singles and six Number 1 albums, the Eagles were one of the most successful recording artists of the decade. At the end of the 20th century, two of their albums, Eagles: Their Greatest Hits 1971–1975 and Hotel California, ranked among the ten best-selling albums according to the Recording Industry Association of America. The best-selling studio album Hotel California is rated as the thirty-seventh album in the Rolling Stone list "The 500 Greatest Albums of All Time", and the band was ranked number 75 on Rolling Stone's 2004 list of the 100 Greatest Artists of All Time.[1] They are also the best-selling American group ever, with Eagles: Their Greatest Hits 1971–1975 being the best-selling album in the U.S. to date.[2][3]

The Eagles broke up in 1980, but reunited in 1994 for Hell Freezes Over, a mix of live and new studio tracks. They have toured intermittently since then, and were inducted into the Rock and Roll Hall of Fame in 1998.

In 2007, the Eagles released Long Road out of Eden, their first full studio album in 28 years.

Indexed at Wikipedia.

Show us your talent, perform The Disco Strangler!

Here you can post a video or audio performance. Tell me more ...
Where can we find your performance? Tell me more ...
Your comment:
Please, log in to post your performance.