Artists by letter: A B C D E F G H I J K L M N O P Q R S T U V W X Y Z 0-9

 
Orleans
David Crosby - Orleans


G A Em   G   A  Em
Orléans, Beaugency,  \
G A   Bb A G  A  Em   \
Notre-Dame de Cléry    \ 
A  G  F#-G-F# Em        x2 (the first time is acapella, the second time the guitar joins, like this:) 
Vendô-        me,      /
A  G  F#-G-F# Em      /
Vendô-        me     /


   G                 A                 Em

e|-----7p0---0h7---------7p0---0h7---------7p0---0h7-------7p0---0h7--|
B|-----0-----------------0-----------------0---------------0----------|
G|--------------------------------------------------------------------|
D|-5-------5---------7-------7----------------------------------------|   x2
A|-------------------------------------7-------7-------7-------7------|
E|--------------------------------------------------------------------|

   G                 A                 Bb             A

e|-----7p0---0h7---------7p0---0h7---------7p0---0h7-------7p0---0h7--|
B|-----0-----------------0-----------------0---------------0----------|
G|--------------------------------------------------------------------|
D|-5-------5---------7-------7---------8-------8------7--------7------|   
A|--------------------------------------------------------------------|
E|--------------------------------------------------------------------|

   G                 A                 Em                        A

e|-----7p0---0h7---------7p0---0h7---------7p0---0h7-------7p0------7-|
B|-----0-----------------0-----------------0---------------0--------0-|
G|--------------------------------------------------------------------|
D|-5-------5---------7-------7-----------------------------------7----| 
A|-------------------------------------7-------7-------7--------------|
E|--------------------------------------------------------------------|

   G                        F#-G-F#    Em                        A 

e|-----7p0---0h7---------7p0---------------7p0---0h7-------7p0------7-|
B|-----0-----------------0-----------------0---------------0--------0-|
G|--------------------------------------------------------------------|
D|-5-------5---------5-------4/5\4-------------------------------7----|
A|-------------------------------------7-------7-------7--------------|
E|--------------------------------------------------------------------|
   
   G                        F#-G-F#    Em                          D 

e|-----7p0---0h7---------7p0---------------7p0---0h7-------7p0---0h7--|
B|-----0-----------------0-----------------0---------------0----------|
G|--------------------------------------------------------------------|
D|-5-------5---------5-------4/5\4------------------------------------|
A|-------------------------------------7-------7-------7-------7---5--|
E|--------------------------------------------------------------------|


Then, transition to the solo part:

   Em

e|-----7p0---0h7-------7p0---0h7--|
B|-----0---------------0----------|
G|--------------------------------|
D|--------------------------------|   
A|-7-------7-------7-------7------|
E|-0---------------0--------------|


SOLO

     e|-14--12--10-12--10-7-10-7--5-3--------12-10-9-5-5------10--9---5-5/7----|
     B|-12--10--8--10--8--5-8--5--3-5--------10-8--7-3-3------8---7---3-3/5----|
     G|-11--9---7--9---7--4-7--4--2-4--------9--7--6-2-2------7---6---2-2/4----|
gt.1 D|------------------------------------------------------------------------|
     A|------------------------------------------------------------------------|
     E|-0---0---0--0---0--0-0--0--0-0--------0--0--0-0-0------0---0---0-0------|


     e|------------------------------------------------------------------------|
     B|---------------------------------------------/7-7-----/8---7------------|
     G|-----------------------------------------7--9------------------9-9------|
gt.2 D|--------------------------------------9---------------------------------|
     A|------------------------------------------------------------------------|
     E|------------------------------------------------------------------------|
_____
     e|-14--12--10-12--10-7-10-7--5-3--------12-10---9-5------10--9---5-5/7----|
     B|-12--10--8--10--8--5-8--5--3-5--------10-8----7-3------8---7---3-3/5----|
     G|-11--9---7--9---7--4-7--4--2-4--------9--7----6-2------7---6---2-2/4----|
gt.1 D|------------------------------------------------------------------------|
     A|------------------------------------------------------------------------|
     E|-0---0---0--0---0--0-0--0--0-0--------0--0----0-0------0---0---0-0------|

     e|------------------------------------------------------------------------|
     B|------------------------------------------------7-----/8---7------------|
     G|-----------------------------------------7----9----------------9-9------|
gt.2 D|--------------------------------------9---------------------------------|
     A|------------------------------------------------------------------------|
     E|------------------------------------------------------------------------|


OUTRO

        D6
  
     e|-7------------------------|
     B|-0------------------------|
     G|-7------------------------|
gt.1 D|-0------------------------|
     A|--------------------------|
     E|--------------------------|

     e|--------------------------|
     B|--------------------------|
     G|-7--------7h9----6v-------|
gt.2 D|--------------------------|
     A|--------------------------|
     E|--------------------------|


At the end, just pluck a few strings in Em, and have another guitar playing some harmonics on the 5th and 
7th frets.




































 
 
David Crosby - Orleans :: indexed at Ultimate Guitar.
Orleans tabs @ 911Tabs
People who played David Crosby - Orleans also played these songs by David Crosby:
Hero Tab, Page 43 Chords, Immigration Man Tab, Music Is Love Chords, Guinnevere Tab, Cowboy Movie Chords

About the artist behind Orleans:

David Van Cortlandt Crosby (born August 14, 1941) is an American guitarist, singer, and songwriter. He is best known for being a founding member of The Byrds and Crosby, Stills, Nash & Young (CSN&Y). Crosby is a member of the Rock and Roll Hall of Fame for his work in the Byrds and CSN.

Indexed at Wikipedia.

Show us your talent, perform Orleans!

Here you can post a video or audio performance. Tell me more ...
Where can we find your performance? Tell me more ...
Your comment:
Please, log in to post your performance.