Artists by letter: A B C D E F G H I J K L M N O P Q R S T U V W X Y Z 0-9

 
Whiskey And You
[Intro]

e|-------------------------------------------------------|
B|-------------------------------------------------------|
G|-------------------------------------------------------|
D|-2\4--4--4\5--5--5\7--7--7/5--5------------------------|   X2
A|-------------------------------------------------------|
E|-0---0-0-----0-0-----0-0-----0-0-----------------------|


[Verse]
                          
e|-------------------------------------------------------|
B|-------------------------------------------------------|
G|-------------------------------------------------------|   D = this progression  
D|-2\4--4--4\5--5--5\7--7--7/5--5------------------------|
A|-------------------------------------------------------|
E|-0---0-0-----0-0-----0-0-----0-0-----------------------|

       Bm           Bm7
e|------2------------2-----------------------------------|
B|------3------------2-----------------------------------|
G|------4------------4-----------------------------------|
D|------4------------4-----------------------------------|   X2
A|------2------------2-----------------------------------|
E|------x------------x-----------------------------------|



All D's are the progression from the intro unless otherwise stated.


[Verse]

              D      
 There’s a bottle… on the dresser by your ring
          Bm    Bm7          Bm                  Bm7
And it’s empty… so right now I don’t feel a thing
           D                                               Bm    A       G   (Don't play 6th string on any G) 
I’ll be hurtin’… when I wake up on the floor, and I’ll be over… it… by noon
               D (Actual D chord) A         D (progression) x2
That’s the difference, between whiskey and you

Come tomorrow… I can walk in any store
             Bm    Bm7        Bm             Bm7
It ain’t a problem… they’ll always sell me more
                D                                                    Bm         A       G
But you’re forgiveness… that’s something I can’t buy, there ain’t a thing… that I… can do
               D                  A         D (Actual D Chord)
That’s the difference, between whiskey and you


[Chorus]

           A                 G
One’s the devil… one keeps driving me insane
             A         G
At times I wonder… if they ain’t both the same
              D (Progression)                                       Bm    A             G
But one’s a liar… that helps to hide me from my pain , and one’s a long… gone… bitter truth
               D                  A         D (progression) x2
That’s the difference, between whiskey and you


[Verse]

              D
I’ve got a problem… but it ain’t like what you think
Bm                    Bm7               Bm                  Bm7
I drink because I’m lonesome… and I’m lonesome ‘cause I drink
   D                                                  Bm       A         G            
If I don’t break down… and bring it on myself, it’ll hit… out of… the blue
               D                      A         D ( actual chord)
That’s the difference, between the whiskey and you


[Chorus]

           A                 G
One’s the devil… one keeps driving me insane
             A         G
At times I wonder… if they ain’t both the same
              D (Progression)                                       Bm    A             G
But one’s a liar… that helps to hide me from my pain , and one’s a long… gone… bitter truth
               D                  A         D (progression) G D
That’s the difference, between whiskey and you



All the transitions are kind of weird just listen to the song especially on the second line of each verse.
Once again all D's are the progression from the intro unless otherwise stated.

There is one fill that he does in avery verse right after the Bm A G. It's hard to tell exactly what he does
but I think it is this. Might need to play with it a little to sound right.


e|-----------------------------------------------------|
B|-----------------------------------------------------|
G|--------5-4------------------------------------------|
D|----5h7----------------------------------------------|   
A|-----------------------------------------------------|
E|-----------------------------------------------------|



************************************

| x  Dead note
| h  Hammer-on
| /  Slide up
| \  Slide down

************************************
 
 
Chris Stapleton - Whiskey And You :: indexed at Ultimate Guitar.
Whiskey And You tabs @ 911Tabs

Quick tip, so you can enjoy Whiskey And You even more:

If you spend just 10 seconds to register, you will be able to comment on all the chords and tabs and rate them. You will as well be able to comment on videos of your fellow guitarists and give them ratings from 1 to 5 ... And - of course - you can share your own videos with them and see what they think of you. :)
Click here to join us!

Show us your talent, perform Whiskey And You!

Here you can post a video or audio performance. Tell me more ...
Where can we find your performance? Tell me more ...
Your comment:
Please, log in to post your performance.