Artists by letter: A B C D E F G H I J K L M N O P Q R S T U V W X Y Z 0-9

 
Outlaw State Of Mind
SONG:   OUTLAW STATE OF MIND
ARTIST: CHRIS STAPLETON
TAB BY: DON CZARSKI
EMAIL:  [email protected]
NOTE:   This is in DROP D tuning


                      OUTLAW STATE OF MIND
                        CHRIS STAPLETON

NOTE: These RIFFS used in the intro are played throughout the song.

INTRO:

    F             G            Bb             C                   D
E -------------------------------------------------------------------
B -------------------------------------------------------------------
G -------------------------------------------------------------------
D ----3-----3-------5-----5-------8-----8---------10------10---------
A --------3-------------5-------------8-----------------10-----------
D --3---3-------3/5---5-------5/8---8--------8/10----10-------0-3b-0-

     D
E ------------------------------------------------------
B ------------------------------------------------------
G ------------------------------------------------------
D ---0---0-----------------------0---0------------------
A -----3-----3h4h5-0-3-5-----------3-------3h4h5-0-3-5--
D ---------0----------------3b-0--------0---------------
    D
E --------------------------------------------------------------
B --------------------------------------------------------------
G --------------------------------------------------------------
D ------0---0-----------------------0---0-----------------------
A --------3------3h4h5-0-3-5----------3-------3h4h5-0-3-5-------
D -3b-0--------0---------------3b-0--------0---------------3b-0-


VERSE:
 D
Cut my teeth on Daddy's old LGO
       D
And I lost my mind somewhere in New Mexico
F      G                    D   
  And TW put a snake on my back
F           G            Bb  C  
  I keep a red bar on my si-ide


CHORUS:
          G                     D 
And it's people all across the land
              A                D
From East Kentucky down to Alabam
  G                D           
Whole lotta like I am 
         A
All the time
            C                F   G  Bb  C  D
Yeah, in an outlaw state of mind


VERSE:
D
I got friends that know how to have a good time
           D
Yeah they roll their own and drink Carolina shine
F                G                    D
  I've seen the devil in a dark coal mine
F            G                    Bb  C
  I've been higher than a Georgia pi-ine


CHORUS:
             G                     D  
And there's people all across the land 
              A                 D
From West Virginia to the Rio Grande
  G                D             
Whole lotta like I am 
         A
All the time 
            C                G    
Yeah, in an outlaw state of mind


INSTRUMENTAL/SOLO:
D  A  D  G  D  A  C


CHORUS:
               G                     D 
Yeah, there's people all across the land
          A                    D 
From New York out to old San Fran
 G                D            A
Just dont give a damn all the time
       C               F   G  Bb C  D 
In an outlaw state of mind


OUTRO: Played over and over...

    D
E --------------------------------------------------------------
B --------------------------------------------------------------
G --------------------------------------------------------------
D ------0---0-----------------------0---0-----------------------
A --------3------3h4h5-0-3-5----------3-------3h4h5-0-3-5-------
D -3b-0--------0---------------3b-0--------0---------------3b-0-


 
 
Chris Stapleton - Outlaw State Of Mind :: indexed at Ultimate Guitar.
Outlaw State Of Mind tabs @ 911Tabs

Quick tip, so you can enjoy Outlaw State Of Mind even more:

If you spend just 10 seconds to register, you will be able to comment on all the chords and tabs and rate them. You will as well be able to comment on videos of your fellow guitarists and give them ratings from 1 to 5 ... And - of course - you can share your own videos with them and see what they think of you. :)
Click here to join us!

Show us your talent, perform Outlaw State Of Mind!

Here you can post a video or audio performance. Tell me more ...
Where can we find your performance? Tell me more ...
Your comment:
Please, log in to post your performance.