Artists by letter: A B C D E F G H I J K L M N O P Q R S T U V W X Y Z 0-9

 
Lean
Dark New Day: Lean

Transcribed by: mysticguitar77

YouTube Channel: MysticGuitar77

Date last modified: July 28, 2014

Tuning: Drop B (B,F#,B,E,G#,C#)

Riff 1
C#|---------------------------------------------|
G#|---------------------------------------------|
 E|---------------------------------------------|
 B|---------------------------------0-0-5-0-0-3-|
F#|-----------5---------------------0-0-5-0-0-3-|
 B|-0-2-2-2-0---6-6-6--6-0-6-8--8-8-0-0-5-0-0-3-|       
                                    * *   * *

Play Riff 1 x6   "By popular demand you fall to waste again..."

Riff 2   "The guilt is wearing down the defense..."
C#|--------------------------------------------|
G#|--------------------------------------------|
 E|--------------------------------------------|
 B|-0-2-2-0-2---2-0-2---2-0-2---0-0--0-0-0-0-0-|
F#|-0-2-2-0-2---2-0-2---2-0-2---0-0--0-0-0-0-0-|
 B|-0-2-2-0-2---2-0-2---2-0-2---0-0--0-0-0-0-0-|
                                * *  * * * * *

Play Riff 2 x4   "Allowing you to live the same old day..."

Riff 3   "I can see the pain living inside you..."
C#|----0--------0--------0--------0-------------------------------------------------|
G#|-------0--------0--------0--------0--7-7--7-7-7--7-7-7-----7-7--7-7-7--7-7-7-----|
 E|-------------------------------------4-4--4-4-4--4-4-4-----4-4--4-4-4--4-4-4-----|
 B|-2--------5--------0--------7--------5-5--5-5-5--5-5-5-----5-5--5-5-5--5-5-5-----|
F#|-2--------5--------0--------7----------------------------------------------------|
 B|-2--------5--------0--------7--------------------------0-2-------------------0-2-|

Play Riff 3 x2   "I can see the change standing beside you..."
Play Riff 1 x6   "Somehow you slip behind and go your own way..."
Play Riff 2 x2   "For now it's wearing down the defense..."

Riff 4
C#|--------------------------------------------------|
G#|--------------------------------------------------|
 E|--------------------------------------------------|
 B|-0-2-2-0-2---2-0-2-3-2-0-2-0-2-3-2-0-0--0-0-0-0-0-|
F#|-0-2-2-0-2---2-0-2-------2-0-2-------0--0-0-0-0-0-|
 B|-0-2-2-0-2---2-0-2-------2-0-2-------0--0-0-0-0-0-|
                                        *  * * * * *

Play Riff 4 x2   "Crawling up your spine and watching you decay..."
Play Riff 3 x3   "I can see the pain living inside you..."

Riff 5
C#|----------------------------------------------------|
G#|----------------------------------------------------|
 E|----------------------------------------------------|
 B|-------------3b-----------3b-----------3b-----------|
F#|----------------------------------------------------|
 B|-0-2-2-2-0-2----0-3-2-0-2----0-3-2-0-2----2-0-0-0-0-|
    * * * * * *    * * * * *    * * * * *    * * * * *

Play Riff 5 x2

Riff 6
C#|----------------------------------------------------|
G#|----------------------------------------------------|
 E|----------------------------------------------------|
 B|-0-2-2-2-0-2----0-3-2-0-2----0-3-2-0-2----2-0-0-0-0-|
F#|-0-2-2-2-0-2-5b-0-3-2-0-2-5b-0-3-2-0-2-5b-2-0-0-0-0-|
 B|-0-2-2-2-0-2----0-3-2-0-2----0-3-2-0-2----2-0-0-0-0-|
    * * * * * *    * * * * *    * * * * *    * * * * *

Play Riff 6 x4   (the transition after is simply the second half of the chorus riff)
Play Riff 3 x3   "I can see the pain living inside you..."
Play Riff 2 x2   "Lean on me this time..."
Play Riff 6 x2   "Lean on me this time..."

Ending
C#|-----------|
G#|-----------|
 E|-----------|
 B|-0-2-2-0-2-|
F#|-0-2-2-0-2-|
 B|-0-2-2-0-2-|

Enjoy!!

 
 
Dark New Day - Lean :: indexed at Ultimate Guitar.
Lean tabs @ 911Tabs
People who played Dark New Day - Lean also played these songs by Dark New Day:
Breakdown Acoustic Tab, Storm Tab, Brother Tab, Follow The Sun Down Tab, Heal In Time Tab, Pieces Tab

About the artist behind Lean:

Dark New Day is an American hard rock band that formed in 1995, disbanded, and re-formed in late 2004.

Indexed at Wikipedia.

Show us your talent, perform Lean!

Here you can post a video or audio performance. Tell me more ...
Where can we find your performance? Tell me more ...
Your comment:
Please, log in to post your performance.