Artists by letter: A B C D E F G H I J K L M N O P Q R S T U V W X Y Z 0-9

 
Follow The Sun Down
Dark New Day: Follow The Sun Down

Transcribed by: mysticguitar77

Facebook: https://www.facebook.com/MysticGuitar77
YouTube Channel: https://www.youtube.com/user/MysticGuitar77

Date last modified: April 14, 2015

Tuning: Modified Drop C (C,G,C,F,A#,C)

Riff 1 (acoustic)
 C|---------------------------------------0----------------0-----|
A#|-----------------------------------0-----0-----0----0-----0---|
 F|---2---5\2-0-------0--------0--------0----------------0-------|
 C|-----0-------0-2/4----4\2-0---0-------------------------------|
 G|--------------------------------------------------------------|
 C|-0------------------------------3----------5h7---5----------3-|

Play Riff 1 x6   "No tomorrow is a maybe..."

Riff 2   "So take the highway west again..."
 C|-0--0--0-0-0-0--0-0-0---0--0-0-0---0-----------------|
A#|-0--0--0-0-0-0--0-0-0---0--0-0-0---0-----------------|
 F|-5--5--5-5-3-3--3-3-3---5--5-7-7---7-------------0---|
 C|-5--5--5-5-3-3--3-3-3---3--3-5-5---4---------2/4---0-|
 G|-3--3--3-3-1-1--1-1-1-0-3--3-5-5-0-0--5\3-0----------|
 C|----------------------0-3--3-5-5-0-0-----------------|

 C|-0--0--0-0-0-0--0-0-0---0--0-0-0---0-----------------|
A#|-0--0--0-0-0-0--0-0-0---0--0-0-0---0-----------------|
 F|-5--5--5-5-3-3--3-3-3---5--5-7-7---7-----------0-----|
 C|-5--5--5-5-3-3--3-3-3---3--3-5-5---4---------5---4p0-|
 G|-3--3--3-3-1-1--1-1-1-0-3--3-5-5-0-0--5\3-0----------|
 C|----------------------0-3--3-5-5-0-0-----------------|

 C|-0--0--0-0-0-0--0-0-0---0--0-0-0---0-----------------|
A#|-0--0--0-0-0-0--0-0-0---0--0-0-0---0-----------------|
 F|-5--5--5-5-3-3--3-3-3---5--5-7-7---7-------------0---|
 C|-5--5--5-5-3-3--3-3-3---3--3-5-5---4---------2/4---0-|
 G|-3--3--3-3-1-1--1-1-1-0-3--3-5-5-0-0--5\3-0----------|
 C|----------------------0-3--3-5-5-0-0-----------------|

 C|-0--0-0-0---0~--------|
A#|-0--0-0-0---0~--------|
 F|-5--5-5-5---3~--------|
 C|-5--5-5-5-x-3~--------|
 G|-3--3-3-3-x-1~--------|
 C|----------x-----------|

Lead (2nd guitar plays Riff 1 twice underneath)
 C|--------------------------------|
A#|----0-------0-----------0-------|
 F|-7-----7h9-----7--5--4----4-4b5-|
 C|--------------------------------|
 G|--------------------------------|
 C|--------------------------------|

 C|----------0----------0------------0-------0----------0----------0------------0-------|
A#|-----------------------0----------------0-------------------------0------------------|
 F|-12h14/16---16b17r16-----12/14h16---14------12/14h16---16b17r16-----12/14h16---16b17-|
 C|-------------------------------------------------------------------------------------|
 G|-------------------------------------------------------------------------------------|
 C|-------------------------------------------------------------------------------------|

 C|----------0----------0------------0-------0----------0----------0------------0----|
A#|-----------------------0----------------0-------------------------0---------------|
 F|-12/14h16---16b17r16-----12/14h16---14------12/14h16---16b17r16-----14\12/14---14-|
 C|----------------------------------------------------------------------------------|
 G|----------------------------------------------------------------------------------|
 C|----------------------------------------------------------------------------------|

Play Riff 1 x4   "Chances come and chances leave you..."
Play Riff 2 x1   "So take the highway west again..."

Riff 3 (guitar 1)   "You can't stop running..."
 C|-----------------------------------------------------------------|
A#|-----------------------------------------------------------------|
 F|-----0-----0------0-----0---0---0-----0-----0----------------0---|
 C|---0-----0------0-----0-------------0-----0---4----------2/4---0-| x3
 G|----------------------------------------------0------------------|
 C|-3-----5-----10-----8-----7---5---3-----5-----0--2b3r2-0---------|

 C|----------------------------------|
A#|----------------------------------|
 F|-----0-----0------0-----0---0---0-|
 C|---0-----0------0-----0-----------|
 G|----------------------------------|
 C|-3-----5-----10-----8-----7---7---|

Riff 3 (guitar 2)
 C|-----0-----0------0-----0---0---0-----0-----0--------------------|
A#|---0-----0------0-----0-------------0-----0----------------------|
 F|-------------------------------------------------------------0---|
 C|-3-----5-----10-----8-----7---5---3-----5-----4----------2/4---0-| x3
 G|----------------------------------------------0------------------|
 C|----------------------------------------------0--2b3r2-0---------|

 C|-----0-----0------0-----0---0---0-|
A#|---0-----0------0-----0-----------|
 F|----------------------------------|
 C|-3-----5-----10-----8-----7---7---|
 G|----------------------------------|
 C|----------------------------------|

Riff 3 cont'd (both guitars)
 C|-0--0-0-0--0-0--0-0--0-0-0-0-0---0--0----0--0~-----|
A#|-0--0-0-0--0-0--0-0--0-0-0-0-0---0--0----0--0~-----|
 F|-7--7-7-7--7-7--7-7--7-7-7-7-10--10-10---10-10~----|
 C|-5--5-5-5--5-5--5-5--5-5-5-5-8---8--8--x-8--8~-----|
 G|-5--5-5-5--5-5--5-5--5-5-5-5-8---8--8--x-8--8~-----|
 C|-5--5-5-5--5-5--5-5--5-5-5-5-8---8--8--x-8--8~-----|

Fill 1 (both acoustic guitars)
 C|--------------------------------0-0-0-0-0-0-0-0-0-0-0-0-0-0-0-0-|
A#|--------------------------------0-0-0-0-0-0-0-0-0-0-0-0-0-0-0-0-|
 F|---2---5\2-0-------0--------0---5-5-5-5-5-5-5-5-7-7-7-7-7-7-7-7-|
 C|-----0-------0-2/4----4\2-0---0-3-3-3-3-3-3-3-3-5-5-5-5-5-5-5-5-|
 G|--------------------------------3-3-3-3-3-3-3-3-5-5-5-5-5-5-5-5-|
 C|-0------------------------------3-3-3-3-3-3-3-3-5-5-5-5-5-5-5-5-|

Fill 1 (electric guitar)
 C|----------------------------------------------------------------|
A#|----------------------------------------------------------------|
 F|----------------------------------------------------------------|
 C|--------------------------------3-3-3-3-3-3-3-3-5-5-5-5-5-5-5-5-|
 G|--------------------------------3-3-3-3-3-3-3-3-5-5-5-5-5-5-5-5-|
 C|--------------------------------3-3-3-3-3-3-3-3-5-5-5-5-5-5-5-5-|
                                   * * * * * * * * * * * *

Play Riff 2 x1  "So take the highway west again..." (all guitars)
Play Riff 1 x1  "Follow the sun down..." (acoustic guitars)

Ending (electric guitar, let all chords ring out)
 C|--------0----0---------------0~-|
A#|--------0----0---------------0~-|
 F|--------5----7---------------5~-|
 C|-0------3----5----3b--0------3~-|
 G|-0------3----5----3b--0------3~-|
 C|-0------3----5----3b--0------3~-|

Ending (acoustic guitars)
 C|--------------------------------0~-|
A#|--------------------------------0~-|
 F|---2---5\2-0-------0--------0---5~-|
 C|-----0-------0-2/4----4\2-0---0-3~-|
 G|--------------------------------3~-|
 C|-0------------------------------3~-|

Enjoy!!



 
 
Dark New Day - Follow The Sun Down :: indexed at Ultimate Guitar.
Follow The Sun Down tabs @ 911Tabs
People who played Dark New Day - Follow The Sun Down also played these songs by Dark New Day:
Breakdown Acoustic Tab, Storm Tab, Brother Tab, Follow The Sun Down Tab, Heal In Time Tab, Pieces Tab

About the artist behind Follow The Sun Down:

Dark New Day is an American hard rock band that formed in 1995, disbanded, and re-formed in late 2004.

Indexed at Wikipedia.

Show us your talent, perform Follow The Sun Down!

Here you can post a video or audio performance. Tell me more ...
Where can we find your performance? Tell me more ...
Your comment:
Please, log in to post your performance.