Artists by letter: A B C D E F G H I J K L M N O P Q R S T U V W X Y Z 0-9

 
Fiend
Dark New Day: Fiend (Hail Mary version)

Transcribed by:: mysticguitar77

YouTube Channel: MysticGuitar77

Date last modified: October 20, 2014

Tuning: Modified Drop A# (A#,F,A#,D#,F,A#)
        *first two strings are tuned down an additional full step
         from regular Drop A# tuning*

Riff 1
A#|---------------------------------------------------|
 F|--------0----------------0--------0----------------|
D#|---------------------------------------------------|
A#|-----6b------------------------6b----------0-------|
 F|---5---------5\3---3/5-6-----5---------------------|
A#|-0--------0------0---------0--------0--3h5---5-3-1-|
                    *

A#|---------------------------------------------------|
 F|--------0----------------0--------0----------------|
D#|-----------------------0---------------------------|
A#|-----6b------------------------6b----------0-------|
 F|---5---------5\3---3\1-------5---------------------|
A#|-0--------0------0---------0--------0--3h5---5-3-1-|
                    *

Riff 2   "I'm taking, taking my chances..."
A#|-----------------------------------------------------|
 F|-------------------------0---------------------------|
D#|-----------------------------------------------------|
A#|---------------------------------------------0-------|
 F|-------------5\3---3/5-6-----------------------------|
A#|-0-0--0--0-0-----0---------000-0--0--0-0-3h5---5-3-1-|
            * *     *         ***       * *

A#|-------------------------------------------------------|
 F|---------------------------0---------------------------|
D#|-------------------------0-----------------------------|
A#|-----------------------------------------------0-------|
 F|---------------5\3---3\1-------------------------------|
A#|-0-0-0--0--0-0-----0---------000-0--0--0-0-3h5---5-3-1-|
              * *     *         ***       * *

Riff 3   "I can't let constant disaster..."
A#|--------------------------------------------------|
 F|--------0----------------0--------0---------------|
D#|--------------------------------------------------|
A#|-----6b------------------------6b---------0-------|
 F|---5---------5\3---3/5-6--------------------------|
A#|-0--------0------0---------000------0-3h5---5-3-1-|
                    *         ***

A#|--------------------------------------------------|
 F|--------0----------------0--------0---------------|
D#|-----------------------0--------------------------|
A#|-----6b------------------------6b---------0-------|
 F|---5---------5\3---3\1----------------------------|
A#|-0--------0------0---------000------0-3h5---5-3-1-|
                    *         ***

Riff 4 (clean, let all notes ring out)  "I've waited for so long..."
A#|---------------------------------------|
 F|---------------------------------------|
D#|-------------------------------------0-|
A#|---10---10---10---10---10---10---7/8---|
 F|---------------------------------------|
A#|-8----8----8----8----0----0----0-------|

Play Riff 4 x2   "How can I go wrong..."

Riff 5   "Coming on like a fiend..."
A#|---------------------------------------------------------------------|
 F|---------------------------------------------------------------------|
D#|---------------------------------------------------------------------|
A#|---------------------------------------------------------------------|
 F|---------5-5-5-------5-5-5-5\3-3-3---------5-5-5-------5-5-5-5\3-3-3-|
A#|-0-0-0-0-------0-0-0---------------4-4-4-4-------4-4-4---------------|

A#|-------------------------------------------------------------------|
 F|-------------------------------------------------------------------|
D#|-------------------------------------------------------------------|
A#|-------------------------------------------------------------------|
 F|---------5-5-5-------5-5-5-5\3-3-3---------------------------------|
A#|-8-8-8-8-------8-8-8---------------3-3-3-3-3-3-3-3-1-1-1-1-1-1-1-1-|

Play Riff 5 x2   "This is something I need..."
Play Riff 1 x0.5
Play Riff 2 x1   "My will and my resolution..."

Fill 1
A#|-------------|
 F|-------------|
D#|-------------|
A#|-----0-------|
 F|-------------|
A#|-3h5---5-3-1-|

Play Riff 3 x1   "I'm proving myself to a new place..."
Play Riff 4 x2   "I've waited for so long..."
Play Riff 5 x2   "Coming on like a fiend..."

Fill 2 (let chords ring out)
A#|-0------------------0-----------|
 F|-0------------------0-----------|
D#|-0------------------0-----------|
A#|-------3--0------8\--------3--0-|
 F|-------3--0------8\--------3--0-|
A#|-------3--0------8\--------3--0-|

Riff 6   "I've never been so close..."
A#|-----------------------------------------------------------------|
 F|-----------------------------------------------------------------|
D#|-7-7-7-7-7-7-7-7-7-7-7-7-8-8-5-5-7-7-7-7-7-7-7-7-8-8-8-8-5-5-5-5-|
A#|-x-x-x-x-x-x-x-x-x-x-x-x-x-x-x-x-x-x-x-x-x-x-x-x-x-x-x-x-x-x-x-x-|
 F|-5-5-5-5-5-5-5-5-5-5-5-5-6-6-3-3-5-5-5-5-5-5-5-5-6-6-6-6-3-3-3-3-|
A#|-----------------------------------------------------------------|

Play Riff 6 x4   "I never held it in my hands..."

Fill 3   "I'm coming off just like you..."
A#|-------------------------------------------------------------------------|
 F|-------------------------------------------------------------------------|
D#|-------------------------------------------------------------------------|
A#|-------------------------------------------------------------------------|
 F|-0------------------0--0--------0-0-0---------0--0--------0-0-0-------\\-|
A#|-0------------------0--0--------0-0-0---------0--0--------0-0-0-------\\-|
    *                  *  *        * * *         *  *        * * *

Play Riff 5 x2   "Coming on like a fiend..."

Riff 7   "Coming on like a fiend..."
A#|---------------------------------------0-0-0-0-------0-0-0-0-----|
 F|---------------------------------------0-0-0-0-------0-0-0-0-----|
D#|---------------------------------------0-0-0-0-------0-0-0-0-----|
A#|-0-0-0-0-0-0-0-0-0-0-0-0-0-0-0-0-4-4-4-4-4-4-4-4-4-4-4-4-4-4-4-4-|
 F|-0-0-0-0-0-0-0-0-0-0-0-0-0-0-0-0-4-4-4-4-4-4-4-4-4-4-4-4-4-4-4-4-|
A#|-0-0-0-0-0-0-0-0-0-0-0-0-0-0-0-0-4-4-4-4-4-4-4-4-4-4-4-4-4-4-4-4-|

A#|-----------------------------------------------------------------|
 F|-----------------------------------------------------------------|
D#|-----------------------------------------------------------------|
A#|-8-8-8-8-8-8-8-8-8-8-8-8-8-8-8-8---------------------------------|
 F|-8-8-8-8-8-8-8-8-8-8-8-8-8-8-8-8---------------------------------|
A#|-8-8-8-8-8-8-8-8-8-8-8-8-8-8-8-8-3-3-3-3-3-3-3-3-1-1-1-1-1-1-1-1-|

A#|---------------------------------------0-0-0-0-------0-0-0-0-----|
 F|---------------------------------------0-0-0-0-------0-0-0-0-----|
D#|---------------------------------------0-0-0-0-------0-0-0-0-----|
A#|-0-0-0-0-0-0-0-0-0-0-0-0-0-0-0-0-4-4-4-4-4-4-4-4-4-4-4-4-4-4-4-4-|
 F|-0-0-0-0-0-0-0-0-0-0-0-0-0-0-0-0-4-4-4-4-4-4-4-4-4-4-4-4-4-4-4-4-|
A#|-0-0-0-0-0-0-0-0-0-0-0-0-0-0-0-0-4-4-4-4-4-4-4-4-4-4-4-4-4-4-4-4-|

A#|-----------------------------------------------------------|
 F|-----------------------------------------------------------|
D#|-----------------------------------------------------------|
A#|-8-8-8-8-8-8-8-8-8-8-8-8-8-8-8-8-3--3--3--3--1--1--1--1--0-|
 F|-8-8-8-8-8-8-8-8-8-8-8-8-8-8-8-8-3--3--3--3--1--1--1--1--0-|
A#|-8-8-8-8-8-8-8-8-8-8-8-8-8-8-8-8-3--3--3--3--1--1--1--1--0-|

Ending (strum with an upstroke and let ring out)
A#|-0------0------0----------------------|
 F|-0------0------0----------------------|
D#|-2------2------2----------------------|
A#|-0------0------0----drum-fill---0-----|
 F|-0------0------0----------------0--\\-|
A#|-0------0------0----------------0--\\-|

Enjoy!!
 
 
Dark New Day - Fiend :: indexed at Ultimate Guitar.
Fiend tabs @ 911Tabs
People who played Dark New Day - Fiend also played these songs by Dark New Day:
Breakdown Acoustic Tab, Storm Tab, Brother Tab, Follow The Sun Down Tab, Heal In Time Tab, Pieces Tab

About the artist behind Fiend:

Dark New Day is an American hard rock band that formed in 1995, disbanded, and re-formed in late 2004.

Indexed at Wikipedia.

Show us your talent, perform Fiend!

Here you can post a video or audio performance. Tell me more ...
Where can we find your performance? Tell me more ...
Your comment:
Please, log in to post your performance.